Orchestra For Wolves Intro Tab - Gallows






Here is my version of the Intro to Orchestra For Wolves - Gallows

having looked at the other versions i was able to figure it out for myself but i didnt 
it was quite right, so here's my version.

e|------------------------------------------------------------------------|
B|------------------------------------------------------------------------|
G|---5p4h5---5p4h5-------5p4h5--5p4h5------54/5--54/5------5p4h5--5p4h5-|
D|-445p4h54445p4h5/777445p4h5445p4h5/7770054/50054/572/445p4h5445p4h5-|
A|-44-----444-----/77744-----44-----/77700-----00-----72/44-----44------|
D|-44-----444-----/77744-----44-----/77700-----00-----72/44-----44------|
                                         ^
                                         drums and bass come in here

e|-------------------------------------------------------------------------|
B|-------------------------------------------------------------------------|
G|------5p4h5--5p4h5-------5p4h5--5p4h5------54/5--54/5------5p4h5--5p4h5|
D|-222445p4h5445p4h5/777445p4h5445p4h5/7770054/50054/572/445p4h5445p4h5|
A|-22244-----44-----/77744-----44-----/77700-----00-----72/44-----44-----|
D|-22244-----44-----/77744-----44-----/77700-----00-----72/44-----44-----|

Finish on...

e|-------|
B|-------|
G|-------|
D|-222---|
A|-222---|
D|-222---|

and into the verse

check the other tabs for the rest of the song, they are right.

Any comments e-mail me @ jdsomers@hotmail.com
cheers
happy playing

ĂŽnscrie-te la newsletter


Like us on Facebook