Orchestra Of Wolves Intro Tab - Gallows




-------------------------------------------------------------------------------
   Orchestra Of Wolves--Gallows
Tabbed by:danielfisher94
Email:danielfisher94@aol.com

Tuning:drop D

e|------------------------------------------------------------|
B|------------------------------------------------------------|
G|---5/4/5/4/5/4/5------5/4/5/4/5/4/5-----5/4/5/4/5/4/5-------|
D|-445/4/5/4/5/4/57774445/4/5/4/5/4/5777005/4/5/4/5/4/5202----|
A|-44-------------777444-------------77700-------------202----|
E|-44-------------777444-------------77700-------------202----|

e|-------------------------------------------------------------------|
B|--------------------7777777755554444--------------7777777755554444-|
G|---5/4/5/4/5/4/5-5557777777755554444--------------7777777755554444-|
D|-445/4/5/4/5/4/5-5555555555533332222444444444444445555555533332222-|
A|-44---------------------------------44444444444444-----------------|
E|-44---------------------------------44444444444444-----------------|
                                        *****  *****
e|---------------------------------------------|
B|---------------------------------------------|
G|---------------------------------------------|
D|-444444444444444444--------------------------|
A|-444444444444444444--------------------------|
E|-444444444444444444--------------------------|


http://profile.myspace.com/index.cfm?fuseaction=user.viewprofile&friendID=4459262
| /  slide up
|   slide down
| h  hammer-on
| p  pull-off
| ~  vibrato
| +  harmonic
| *  Mute note
===============================================================================

ĂŽnscrie-te la newsletter


Join the ranks ! LIKE us on Facebook