Will Someone Shoot That f*****g Snake (ver2) Tab - Gallows




                GALLOWS- WILL SOMEONE SHOOT THAT f*****g SNAKE

I've put bits of the lyrics in so you know what part of the song it is.

You can work the order out by listening to the song. This is my first tab.
Enjoy

Intro:
Guitar 1
[---------------------------]-----------------------] x4
[---------------------------]-----------------------]     Email:jimbojack1992
[-----2--------2----------2-]-------2-----------2---]    @hotmail.com
[-4-4---3--4-4---3--4-4-4---]-4-4-4---3---4-4-4---3-]
[---------------------------]-----------------------]

Guitar 2
[--------------------------]----------------------]  x2
[--------------------------]----------------------]
[--------------------------]----------------------]
[--------------------------]----------------------]
[-4--4-4--4--4-4--4-4--4-4-]-0--0-0--0--0-0--0--3-]
[-4--4-4--4--4-4--4-4--4-4-]-0--0-0--0--0-0--0--3-]

[--------------------------]----------------------]  x2
[--------------------------]----------------------]
[--------------------------]----------------------]
[--------------------------]----------------------]
[-0--0-0--0--0-0--0-0--0-0-]-4--4-4--4--4-4--4--3-]
[-0--0-0--0--0-0--0-0--0-0-]-4--4-4--4--4-4--4--3-]

Verse
                             Something wicked[1][2] (second time round)
[-------------------]------------------x-x--x-x      [-----x-x----]
[-------------------]------------------x-x--x-x x2   [-----x-x----]
[-------------------]------------------x-x--x-x      [-----x-x--5-]
[-------------------]------------------x-x--x-x      [-----x-x----]
[--4--4----7---3----]--4--4----7---3---x-x--x-x      [-----x-x----]
[--4--4----7---3----]--4--4----7---3---x-x--x-x      [-----x-x----]

                     [1                       [2
        When I see it every night
[-------------------]----------------------] ----------------------]
[-------------------]----------------------] ----------------------]
[-------------------]----------------------] ----------------------]
[-------------------]----------------------] ----------------------]
[-------------------]----------------------] --------------------2-]
[-0-0-0-----0-0-0-0-]-0-----0-0---0-0----0-] -0-----0-0----0-0---2-]

crawling from the train, into her bed again
[---------------------------]----------------------------|
[---------------------------]----------------------------|
[---------------------------]----------------------------|
[---------------------------]----------------------------|
[-4---4---4---4---7---6---4-]-7---7---7---7---10---9---7-|
[-4---4---4---4---7---6---4-]-7---7---7---7---10---9---7-|

 I wanna drown you in the rain        Will someone shoot that f*****g snake
[---------------------------]  [--------------------]
[---------------------------]  [--------------------]
[---------------------------]  [--------------------]
[---------------------------]  [--------------------]
[-4---4---4---4---7---6---4-]  [-2-0-2---2--5--5--5-]
[-4---4---4---4---7---6---4-]  [-2-0-2---2--5--5--5-]

                I've got a knife for you               Slide up- /
[---------------------------------]----------------------------------]
[----------------7------6---5---4-]----------------------------------]
[--------------------5------------]---------------11-11-11-11--14-14-]
[------------------4--------------]---------------10-10-10-10--13-13-]
[-4-4-4--4-4----------------------]-4-4-4---4-4----9-9--9--9-/-12-12-]
[-4-4-4--4-4----------------------]-4-4-4---4-4----------------------]


      the beating      the beating        the beating      the beating
[-----------------]-----------------]-----------------]------------------------|
[-----------------]-----------------]-----------------]------------------------|
[-7-7-7-7-7-7-7-7-]-9-9-9-9-9-9-9-9-]1111111111111111-]-14-14-14-14-13-131111--|
[-----------------]-----------------]-----------------]------------------------|
[-5-5-5-5-5-5-5-5-]-7-7-7-7-7-7-7-7-]-9-9-9-9-9-9-9-9-]-12-12-12-12-11-11-9-9--|
[-----------------]-----------------]-----------------]------------------------|

  (first time only 2nd time rest)
[----------------]-----------------] [----------------]---------------]
[----------------]-----------------] [----------------]---------------]
[----------------]-----------------] [----------------]---------------]
[----------------]-----------------] [----------------]---------------]
[-4-4-4--4--4--4-]---------4-----2-] [-4-4-4--4--4--4-]---------------]
[-4-4-4--4--4--4-]---------4-----2-] [-4-4-4--4--4--4-]---------------]

ĂŽnscrie-te la newsletter


Join the ranks ! LIKE us on Facebook