Will Someone Shoot That Fuking Snake Intro Tab - Gallows






tuning:drop D

intro
clean
e|---------------------------------------------------------------------|
B|---------------------------------------------------------------------|
G|---------------------------------------------------------------------|
D|---------------------------------------------------------------------|
A|-9-9-9-12-8-9-9-9-9-9-12-8-9-9-9-12-8-9-9-9-9-9-12-8-----------------|
D|---------------------------------------------------------------------| x5

distorted
e|---------------------------------------------------------------------|
B|---------------------------------------------------------------------|
G|---------------------------------------------------------------------|
D|-4-4-4-7-3-----------------------------------------------------------|
A|-4-4-4-7-3-----------------------------------------------------------|
D|-4-4-4-7-3-----------------------------------------------------------|

or you can play it like this i prefer the above personally
e|---------------------------------------------------------------------|
B|---------------------------------------------------------------------|
G|-------2-------------------------------------------------------------|
D|-4-4-4-2-3-----------------------------------------------------------|
A|-4-4-4-0-3-----------------------------------------------------------|
D|-4-4-4---3-----------------------------------------------------------|

ĂŽnscrie-te la newsletter


Like us on Facebook