Follow Me Intro Tab - Gamma Ray




GAMMA RAY - Follow Me

------------------------------------|
------------------------------------|
--9---9---11---12---9---12---11---9-|
----9---9----9----9---9----9----9---|
------------------------------------|
------------------------------------|

------------------------------------|
------------------------------------|
--9---9---11---12---9---12---11---9-|
----9---9----9----9---9----9----9---|
------------------------------------|
------------------------------------|

--------------------------------------------------|
--------------------------------------------------|
--12----12----14----16----12----16----14----12----|
-----12----12----12----12----12----12----12----12-|
--------------------------------------------------|
--------------------------------------------------|

---------------------------------------------|
-------------------------13------------------|
--11----12----14----12--------16----14----16-|
-----12----12----12----12--12----12----12----|
---------------------------------------------|
---------------------------------------------|

ĂŽnscrie-te la newsletter


Join the ranks ! LIKE us on Facebook