Its A Sin Intro (ver2) Tab - Gamma Ray




e------------------------------------------------|
B------------------------------------------------|
G--5--5-7-8-10-8-7-8-7-3-5-7-8-7-5-7-5-----------|
D------------------------------------------------|
A------------------------------------------------|
E------------------------------------------------|

e--------------------------------------------------|
B--------------------------------------------------|
G--5-5-5-5-5-7-5-4-5-4-5-4-5-4--4-4-5--------------|
D--------------------------------------------------|
A--------------------------------------------------|
E--------------------------------------------------|

e--8--8-10-11-13-11-10-11-10-6-8-10-11-10-8-10-8-|
B------------------------------------------------|
G------------------------------------------------|
D------------------------------------------------|
A------------------------------------------------|
E------------------------------------------------|

e--8-8-8-8-8-10-8-7-8-7-8-7-8-7--7-7-8-------------|
B--------------------------------------------------|
G--------------------------------------------------|
D--------------------------------------------------|
A--------------------------------------------------|
E--------------------------------------------------|

ĂŽnscrie-te la newsletter


Join the ranks ! LIKE us on Facebook