Out Of Reach (ver3) Tab - Get Up Kids




"Out Of Reach" by The Get Up Kids off of the album "Something To Write Home About" 
by Matt James

VERSE 1:
Long way from home,
Lost by an echo I'd never have known.
I've got pictures to prove I was there,
but you don't care.
e----------------------------------------------------------------|
b----------------------------------------------------------------|
G-4-----8--------------4-------------------------8---8-----------|
D-4--4--8--6--2--4--6--4-------2-2-----4-4---------8-8--6--2--4--|
A-2--4--6--6--2--4--6--2-2-----2---2---4---4---^6----6--6--2--4--|
E----2-----4--0--2--4------2-1-0-----0-2-----2----------4--0--2--|

Verse 2:
Here's me overseas,
across the pond by the Dover peaks.
I've smuggled myself into new nationalities,
you think you'd be proud of me.
e----------------------------------------------------------------|
b----------------------------------------------------------------|
G-4-----8--------------4-------------------------8---8-----------|
D-4--4--8--6--2--4--6--4-------2-2-----4-4---------8-8--6--2--4--|
A-2--4--6--6--2--4--6--2-2-----2---2---4---4---^6----6--6--2--4--|
E----2-----4--0--2--4------2-1-0-----0-2-----2----------4--0--2--|


CHORUS:
There's room to believe,
out of sight, out of mind, out of reach.
Start over, is no way to begin.
e------------------------------|
b------------------------------|
G-4-----------4--6-----8-------|
D-4--2--6--4--4--6--6--8--2--2-|
A-2--2--6--4--2--4--6--6--2--2-|
E----0--4--2--------4-----0--0-|

ĂŽnscrie-te la newsletter


Join the ranks ! LIKE us on Facebook