Valentine Bass Tab - Get Up Kids




The Get Up Kids- Valentine
Standard Tuning
| /  slide up
|   slide down
| h  hammer-on
| p  pull-off
| ~  vibrato
| +  harmonic
| x  Mute note
INTRO
G|-------------------------------------------------------------------------|
D|-----------------9-9-9-9-9-9-9-9-11-11-11-11-11-11-11-11-7-7-7-7-7-7-7-7-|
A|-------------------------------------------------------------------------|x2
E|-0-0-0-0-0-0-0-0---------------------------------------------------------|

FIRST VERSE
G|--------------------------------------------------|
D|--------------9-9--9--9--11-11--11--11--7-7--7--7-|
A|------------9-------------------------------------|x2
E|-0-0--0--0----------------------------------------|

G|-----------------------------------------------------|
D|-----------------------------------------------------|
A|-----------------------------------------------------|x2
E|-0-0--0--0--2-7-7--7--7--9-9--9--9--9/125-5-5--5--5-|

PRECHORUS (i'm not fully convinced...)
G|-----------------------------------------------------------------|
D|--(6-6-6-6-6-6-6-6-6-6-6-6-6-6-6)-(7-7-7-7-7-7-7-7-7-7-7-7-7-7-7)|
A|-----------------------------------------------------------------|
E|-4-----------------------------4-5-------------------------------|

(...could another point of view...)
G|---------------------------------------------------------------------------------|
D|---------------------------------11-11-11-11-11-11-11-11-11-11-11-11-11-11-11-11-|
A|---------------------------------------------------------------------------------|
E|-0-0-0-0-0-0-0-0-0-0-0-0-0-0-0-0-------------------------------------------------|

(...tear me...)
G|-----------------------------------------------------------------|
D|-----------------------------------------------------------------|
A|-----------------------------------------------------------------|
E|-5-5-5-5-5-5-5-5-7-7-7-7-7-7-7-7-5-5-5-5-5-5-5-5-7-7-7-7-7-7-7-7-|

(in the second prechorus, instead of the last part, play this...)
G|-----------------------------------------------------------------|
D|-7-7-7-7-7-7-7-7-9-9-9-9-9-9-9-9-7-7-7-7-7-7-7-7-9-9-9-9-9-9-9-9-|
A|-----------------------------------------------------------------|
E|-----------------------------------------------------------------|

CHORUS

(...will you be my...)
G|-----------------------|
D|-----------------------|
A|-----------------------|x2
E|-0-0--0--0--5-7-7--5-4-|

(...if i'm a world away...)
G|---------------------------------|
D|---------------------------------|
A|---------------------------------|
E|-5-5-5-5-5-5-5-5-7-7-7-7-7-7-7-7-|

(...appologies...)
G|-----------------------|
D|-----------------------|
A|-----------------------|x2
E|-0-0--0--0--5-7-7--5-4-|

(...constants, aren't so constant anymore...)
G|-----------------------------------------------------------------|
D|-----------------------------------------------------------------|
A|-----------------------------------------------------------------|
E|-5-5-5-5-5-5-5-5-7-7-7-7-7-7-7-7-5-5-5-5-5-5-5-5-7-7-7-7-7-7-7-7-|

after the first chorus play this...
G|---------------|
D|---------------|
A|---------------|
E|-0---7---9---5-|

SECOND VERSE
G|-------------------------------------------------------------------------|
D|-----------------9-9-9-9-9-9-9-9-11-11-11-11-11-11-11-11-7-7-7-7-7-7-7-7-|
A|-------------------------------------------------------------------------|x2
E|-0-0-0-0-0-0-0-0---------------------------------------------------------|

OUTRO


play some variation of these two riffs, listen for how they go
G|---------------------------------|---------------------------------|
D|---------------------------------|-7-7-7-7-7-7-7-7-9-9-9-9-9-9-9-9-|
A|---------------------------------|---------------------------------|
E|-5-5-5-5-5-5-5-5-7-7-7-7-7-7-7-7-|---------------------------------|

(constants... aren't so constant anymore...)
G|-------------------|
D|-------------------|
A|-------------------|
E|-5---7---5---7---3-|

ĂŽnscrie-te la newsletter


Join the ranks ! LIKE us on Facebook