Artefacts Of The Great War Tab - God Dethroned






This is the really sweet instrumental guitar part from God Dethroned's 
''Artifacts of the Great War'' from the album '' Passiondale''.

This is exactly correct in Standard Tuning and is pretty good for
beginners. Listen to the song for the timing as it is hard to tell it from
the tab. Please rate if you like it.

              /Fading in from silence
E|-------------------------------------------------------------------------|
B|------------------------------------------------------------10-----------|
G|-------------7-6-7-6-11----7-6-7-6-2-4-6----7-6-7-6-11---11--------------|
D|-----------------------------------------4-------------------------------|
A|-------------------------------------------------------------------------|
E|-------------------------------------------------------------------------|


E|--------9-10-10-10-9-------9-10-12-12-10---------9-10-9----9-10-10-12-14-|
B|-12-12---------------12-12----------------12-12---------12---------------|
G|-------------------------------------------------------------------------|
D|-------------------------------------------------------------------------|
A|-------------------------------------------------------------------------|
E|-------------------------------------------------------------------------|


E|--------9-10-10-10-9-------9-10-12-12-10---------9-10-9----9-10-10-12-14-|
B|-12-12---------------12-12----------------12-12---------12---------------|
G|-------------------------------------------------------------------------|
D|-------------------------------------------------------------------------|
A|-------------------------------------------------------------------------|
E|-------------------------------------------------------------------------|


E|-------------------------------------------------------------------------|
B|------------------------------------------------------------10-----------|
G|-7-6-7-6-2---7-6-7-6-11----7-6-7-6-2-4-6----7-6-7-6-11---11--------------|
D|-----------------------------------------4-------------------------------|
A|-------------------------------------------------------------------------|
E|-------------------------------------------------------------------------|

E|--------9-10-10-10-9-------9-10-12-12-10---------9-10-9----9-10-10-12-14-|
B|-12-12---------------12-12----------------12-12---------12---------------|
G|-------------------------------------------------------------------------|
D|-------------------------------------------------------------------------|
A|-------------------------------------------------------------------------|
E|-------------------------------------------------------------------------|


E|--------9-10-10-10-9-------9-10-12-12-10---------9-10-9----9-10-10-12-14-|
B|-12-12---------------12-12----------------12-12---------12---------------|
G|-------------------------------------------------------------------------|
D|-------------------------------------------------------------------------|
A|-------------------------------------------------------------------------|
E|-------------------------------------------------------------------------|
                                             v Music starts to fade out about here
E|-------------------------------------------------------------------------|
B|------------------------------------------------------------10-----------|
G|-7-6-7-6-2---7-6-7-6-11----7-6-7-6-2-4-6----7-6-7-6-11---11--------------|
D|-----------------------------------------4-------------------------------|
A|-------------------------------------------------------------------------|
E|-------------------------------------------------------------------------|

E|--------9-10-10-10-9-------9-10-12-12-10---------9-10-9----9-10-10-12-14-|
B|-12-12---------------12-12----------------12-12---------12---------------|
G|-------------------------------------------------------------------------|
D|-------------------------------------------------------------------------|
A|-------------------------------------------------------------------------|
E|-------------------------------------------------------------------------|

                                                          /Faded out completely
E|--------9-10-10-10-9-------9-10-12-12-10---------9-10-9----9-10-10-12-14-|
B|-12-12---------------12-12----------------12-12---------12---------------|
G|-------------------------------------------------------------------------|
D|-------------------------------------------------------------------------|
A|-------------------------------------------------------------------------|
E|-------------------------------------------------------------------------|

Tabbed by [Azrael], corrections to not.dead.enough@googlemail.com

ĂŽnscrie-te la newsletter


Like us on Facebook