Nocturnal Bass Tab - God Dethroned






You can listen to a free clip on God Dethroned.com so you can figure out the speed. Enjoy :D

/=slide up
=slide down

 Riff 1                                              x2
F|-----------------------------------------------------------------||
C|----0-2-3-2------------------0-2-3-2-----------2-----------------||
G|-0----------3-5-3-2-3-2---0----------3-5-3-2-3--3----------------||
D|------------------------3----------------------------------------||



  Riff 2                                      x4
F|------------------------------------------------||
C|------------------------------------------------||
G|-7---8--10/8810-5---8---7575-----------------||
D|------------------------------------------------||

 Riff 3        This part's played pretty fast                x8
F|---------------------------------------------------------------||
C|----7---7---------10--10---------------------------------------||
G|-000--00--7----888--88-----5--3--------------------------------||
D|------------87-----------33-11---------------------------------||

ĂŽnscrie-te la newsletter


Like us on Facebook