Serpent King Bass Tab - God Dethroned






standard tuning

|-----------|
|-----------|
|-0---------|
|-----1-3---|


|-------------------------------------|---|---|
|----2----2----2-3------3----3----3-2-|---|-5-|
|-000--000--000----1-111--111--111----|-3-|---|
|-------------------------------------|---|---|


|--------------------------------------------|
|----2----2----2----2----2----2----3----3-5--|
|-000--000--111--111--333--333--555--555-----|
|--------------------------------------------|



|----------------------------------|
|-0-------2-------0-------3--------|
|-0-------0-------0-------3--------|
|----------------------------------|



|---------------------------------|
|-5-------3-2-------3-5--3-2-3----|
|-5-------3-2-------3-3--3-2-3----|
|---------------------------------|


|-------5---------------5---------------2---------------2---------|
|---7-5-----7-5-7---7-5-----7-5-7---3-2-----3-2-3---3-2-----3-2-3-|
|-5---------------5---------------1---------------1---------------|
|-----------------------------------------------------------------|

|------------|
|-3-2---3-5--|
|-3-2---3-5--|
|------------|

ĂŽnscrie-te la newsletter


Like us on Facebook