The Art Of Immolation Tab - God Dethroned






                         
                          GOD DETHRONED-THE ART OF IMMOLATION
                          From the Album THE GRAND GRIMOIRE
                          Copyright 1997 Metalblade Records
                          
                          Version 1.0 - October 1998


Transcribed by: Zack Demianczyk(Malignant)
 email Zack at dio@nauticom.net, for questions or corrections 

Visit my homepage at http://www.angelfire.com/ak2/MalignantTabs/index.html
(Malignant Tablature Dominion)


/     slide up
     slide down
p     pull on
h     hammer on
~     vibrato
.     palm mute



Tuning: C (2 Whole Steps Down)

    ...   ...   ...    .   .    .    ...   ...
|------------------------------------------------|
|------------------------------------------------|
|------------------------------------------------|
|------------------------------------------------|
|10-----9-----7-----10---9---12---10-----9-----7-|
|---000---000---000----0---0----0----000---000---|

  ...    .    .  .   ...    ...   ...    ...   .   .   .    
|-------------------------------------------------------------|
|-------------------------------------------------------------|
|-------------------------------------------------------------|
|-------------------------------------------------------------|
|-----10---9---7---12----10-----9-----10-----9---5---7----9-7-|
|-000----0---0---0---000----000---000----000---0---0---0------|

 

   ...    ...   ...   ...   ...   ...   ...   ...   ...   ...   ...
|----------------------------------------------------------------------|
|----------------------------------------------------------------------|
|----------------------------------------------------------------------|
|-------5------------------5-----6-----4-----------------------5-----6-|
|-5------------6-----5-----------------------4-----5-----4-------------|
|---000----000---000---000---000---000---000---000---000---000---000---|



    ...   ...   ...   ...   ...   ...
|----------------------------------------|
|----------------------------------------|
|----------------------------------------|
|-4-----4-----5-----4-----4--------------|
|-------------------------------4-----4--|
|---000---000---000---000---000---000----|


|-----|
|-----|
|-----|
|-2-2-|
|-2-2-|
|-0-0-|



|-----------------------------------|
|-----------------------------------|
|-----------------------------------|
|--------------------------55557777-|
|-7777775555------------------------|
|-----------777777888855555---------|


  ... ... ... ...
|------------------------------------|
|------------------------------------|
|------------------------------------|
|-222-222-222-222--------------------|
|-222-222-222-222----------------6p4-|
|-000-000-000-000--6h7p6p4--6p4------|


  ... ... ... ...
|------------------------------------|
|------------------------------------|
|------------------------------------|
|-222-222-222-222--------------------|
|-222-222-222-222----------------6p4-|
|-000-000-000-000--6h7p6p4--6p4------|


  ... ... ... ...
|------------------------------------|
|------------------------------------|
|------------------------------------|
|-222-222-222-222--------------------|
|-222-222-222-222----------------6p4-|
|-000-000-000-000--6h7p6p4--6p4------|
| ... ... ... ...                    |
|------------------------------------|
|--------------------------------8p6-|
|---------------------------8p6------|
|-222-222-222-222--8h9p8p6-----------|
|-222-222-222-222--------------------|
|-000-000-000-000--------------------|



|------------------------------------------------------------|
|------------------------------------------------------------|
|------------------------------------------------------------|
|-4-------4-----4------------7----5-------5-----5-------7-5--|
|-4--4p2--4-----4--4p2--4-5--7----5--5/4--5-----5--5/4--7-5--|
|-2--2p0--2-----2--2p0--2-3--5----3--3/2--3-----3--3/2--5-3--|



|------------------------------------------------------------|
|------------------------------------------------------------|
|---------------------------------------------------55554444-|
|------------------------------2222----22225555--------------|
|---------2222--------55553333-----------------2222----------|
|-00003333----33332222-------------3333----------------------|


play this under the solo
|------------------------------------------------------------|
|------------------------------------------------------------|
|------------------------------------------------------------|
|-4-------4-----4------------7----5-------5-----5-------7-5--|
|-4--4p2--4-----4--4p2--4-5--7----5--5/4--5-----5--5/4--7-5--|
|-2--2p0--2-----2--2p0--2-3--5----3--3/2--3-----3--3/2--5-3--|


    ...   ...   ...    .   .    .    ...   ...
|------------------------------------------------|
|------------------------------------------------|
|------------------------------------------------|
|------------------------------------------------|
|10-----9-----7-----10---9---12---10-----9-----7-|
|---000---000---000----0---0----0----000---000---|

  ...    .    .  .   ...    ...   ...    ...   .   .   .    
|-------------------------------------------------------------|
|-------------------------------------------------------------|
|-------------------------------------------------------------|
|-------------------------------------------------------------|
|-----10---9---7---12----10-----9-----10-----9---5---7----9-7-|
|-000----0---0---0---000----000---000----000---0---0---0------|

 

   ...    ...   ...   ...   ...   ...   ...   ...   ...   ...   ...
|----------------------------------------------------------------------|
|----------------------------------------------------------------------|
|----------------------------------------------------------------------|
|-------5------------------5-----6-----4-----------------------5-----6-|
|-5------------6-----5-----------------------4-----5-----4-------------|
|---000----000---000---000---000---000---000---000---000---000---000---|



    ...   ...   ...   ...   ...   ...
|----------------------------------------|
|----------------------------------------|
|----------------------------------------|
|-4-----4-----5-----4-----4--------------|
|-------------------------------4-----4--|
|---000---000---000---000---000---000----|


|-----|
|-----|
|-----|
|-2-2-|
|-2-2-|
|-0-0-|


 This tab is not permitted or any others off my page to by posted anywhere without
asking me in head of time. For all the time it takes me to do some of these tabs please
ask me first, I would appreciate it, Zack Demianczyk (dio@nauticom.net)

ĂŽnscrie-te la newsletter


Like us on Facebook