Worlds In Collision Tab - God Is An Astronaut






-------------------------------------------------------------------------------
Worlds in Collision - God is an Astronaut
-------------------------------------------------------------------------------
Tabbed by: Jamie
Tuning: Standard

This is the guitar part from 1:17-1:46 and 2:17-3:15. First tab ever, corrections welcome.


(1:17-146)
e|-------------------------------------------|
B|-8-8-8-10--8-8-8-10------------------------|
G|---------------------9-9-9-10--------------|
D|-------------------------------10-12-------|
A|-------------------------------------------|
E|-------------------------------------------|

e|-------------------------------------------|
B|-8-8-8-10--8-8-8-10------------------------|
G|---------------------9-9-9-10--------------|
D|-------------------------------12-10-------|
A|-------------------------------------------|
E|-------------------------------------------|

e|-------------------------------------------|
B|-8-8-8-10--8-8-8-10------------------------|
G|---------------------9-9-9-10--------------|
D|-------------------------------10-12-------|
A|-------------------------------------------|
E|-------------------------------------------|

e|--------------------------------------------|
B|-8-8-8-10--8-8-8-10-------------------------|
G|---------------------9-9-9-10---------------|
D|-------------------------------12-10--------|
A|--------------------------------------13-12-|
E|--------------------------------------------|

(2:17-3:15)
e|-------------------------------------------|
B|-8-8-8-10--8-8-8-10------------------------|
G|---------------------9-9-9-10--------------|
D|-------------------------------10-12-------|
A|-------------------------------------------|
E|-------------------------------------------|

e|--------------------------------------------|
B|-8-8-8-10--8-8-8-10-------------------------|
G|---------------------9-9-9-10---------------|
D|-------------------------------12-10--------|
A|--------------------------------------13-12-|
E|--------------------------------------------|

e|-------------------------------------------|
B|-8-8-8-10--8-8-8-10------------------------|
G|---------------------9-9-9-10--------------|
D|-------------------------------10-12-------|
A|-------------------------------------------|
E|-------------------------------------------|

e|--------------------------------------------|
B|-8-8-8-10--8-8-8-10-------------------------|
G|---------------------9-9-9-10---------------|
D|-------------------------------12-10--------|
A|--------------------------------------13-12-|
E|--------------------------------------------|

e|-------------------------------------------|
B|-8-8-8-10--8-8-8-10------------------------|
G|---------------------9-9-9-10--------------|
D|-------------------------------10-12-------|
A|-------------------------------------------|
E|-------------------------------------------|

e|-------------------------------------------|
B|-8-8-8-10--8-8-8-10------------------------|
G|---------------------9-9-9-10--------------|
D|-------------------------------12-10-------|
A|-------------------------------------------|
E|-------------------------------------------|

e|-------------------------------------------|
B|-8-8-8-10--8-8-8-10------------------------|
G|---------------------9-9-9-10--------------|
D|-------------------------------10-12-------|
A|-------------------------------------------|
E|-------------------------------------------|

e|--------------------------------------------|
B|-8-8-8-10--8-8-8-10-------------------------|
G|---------------------9-9-9-10---------------|
D|-------------------------------12-10--------|
A|--------------------------------------13-12-|
E|--------------------------------------------|






Like us on Facebook