Dogs Were Baking Bass Tab - Gogol Bordello






Gogol Bordello
Dogs were baking

Verse pt. 1
G|-----------|---------|-----------|
D|-5---3---2-|-67---67-|-5---3---2-|
A|-----------|---------|-----------|
E|-----------|---------|-----------|

Verse Pt. 2
G|--------------------------|
D|--------------------------|
A|------------------5-3h555-|
E|-5-3h555--5-3h555---------| 

Chorus: 'mama Diaspora!
G|----------------------------|
D|----------------------------|
A|---------------55-35--------|
E|-55-35--55-35---------55-35-|

Verse

Bridge
G|-----------------------------|
D|------32---------------------|
A|-55-5--5---2320-22/-7-------|
E|----------55----------035-55-|

Verse
G|-----------|---------|-----------|
D|-5---3---2-|-67---67-|-5---3---2-|
A|-----------|---------|-----------|
E|-----------|---------|-----------|

'Party!'
G|---------------------------|
D|-----32--------------------|
A|-55-5--5---2320----32------|
E|---------55-----00---53-55-|

End
G|----|
D|-67-|
A|----|
E|----|

Add my Myspace:
Myspace.com/Jake_bums_sheep_x
I'll add you fer shure and we can bum over the interweb lolz

ĂŽnscrie-te la newsletter


Like us on Facebook