Immigrant Punk Bass Tab - Gogol Bordello






Gogol Bordello
Immigrant Punk

Verse pt. 1
G|---------------|-----------------|---------------|--------------|
D|---------------|-----------------|---------------|-22220000-----|
A|---------222-3-|-----------------|---------222-3-|---------3330-|
E|-0h5--0--------|-0h5--0--333-0---|-0h5--0--------|--------------|

Chorus
G|------------------|----|----------|----|---------------|
D|------------------|----|----------|----|---------------|
A|-5-5-5555---------|-5~-|----------|-5~-|-5555----------|
E|---------5-5-5555-|----|-5-0--5-0-|----|------5-0--5-0-|

Verse
Chorus

Bridge
G|-----------------------|-----------------------|
D|------232--------232---|-----------------------|
A|-5-35-----5-5-35-----5-|------232--------232---|
E|-----------------------|-5-35-----5-5-35-----5-|

Bridge pt. 2
G|-------------|--------------|--------------|------------------|
D|-------------|--------------|--------------|---0-22220000-----|
A|-------222-3-|--------------|--------222-3-|-23----------3330-|
E|-5--55-------|-55-355-33-0--|-555555-------|------------------|

Verse
End

Add my Myspace:
Myspace.com/Jake_bums_sheep_x
I'll add you fer shure and we can bum over the interweb lolz






Like us on Facebook