Nomadic Chronicle Tab - Gogol Bordello






Nomandic chronicle - Gogol Bordello

C G am F em


------3-1-0----0h11-1h0------------------------------------------------|
-1------1-0--1---------------------------------------------------------|
-----------------------------------------------------------------------|
-----------------------------------------------------------------------|
-----------------------------------------------------------------------|
-----------------------------------------------------------------------|

C G am F em
C G am F em
C G am F em

00:46                             00:54

C    G            F  Em          C G      F em
-0----3-1-0--0----0h1-0------------3-1-0--------------------------------|
---1-----------1--------3-1--------3-1-0--------------------------------|
------------------------------------------------------------------------|
---------------------------------------------0--------------------------|
-------------------------------------------3----------------------------|
------------------------------------------------------------------------|


Verse:
C G am F em
C G am F em
C G am F em
C G am F em






Like us on Facebook