All The Tears Tab - Gojira






#----------------------------------PLEASE NOTE--------------------------------#
#This file is the author's own work and represents their interpretation of the#
#song. You may only use this file for private study, scholarship, or research.#
#-----------------------------------------------------------------------------#
#-- File created with Instab - http://www.pconline.com/~smcarey/instab.html --#
#-----------------------------------------------------------------------------#

Author/Artist: Gojira
Title: All The Tears
Album: The Way Off All Flesh
Transcribed by: Jaymz88
Tunning: Drop C


------------------------------------------------------------------------------|
------------------------------------------------------------------------------|
------------------------------------------------------------------------------|
------------------------------------------------------------------------------|
--1---1---1---1---2---0--------0---2---3---2---0------------------------------|
--3---3---3---3---2---0---3b---0---2---3---2---0------------------------------|
                  -   -  A.H   -   -

------------------------------------------------------------------------------|
------------------------------------------------------------------------------|
------------------------------------------------------------------------------|
--------------------1--2--1--2--1--2--4--5--4--5--5--5--5--5--4--2--4--2--1---|
--1--2--1--2--1--2--3--3--3--3--3--3--3--3--3--3--3--3--3--3------------------|
--0--0--0--0--0--0------------------------------------------------------------|
  -  -  -  -  -  -  -  -  -  -  -  -  -  -  -  -  -  -  -  -  -  -  -  -  -

------------------------------------------------------------------------------|
------------------------------------------------------------------------------|
------------------------------------------------------------------------------|
------------------------------------------------------------------------------|
--1---1---1---1---2---0--------0---2---3---2---0------------------------------|
--3---3---3---3---2---0---3b---0---2---3---2---0------------------------------|
                  -   -  A.H   -   -

------------------------------------------------------------------------------|
------------------------------------------------------------------------------|
------------------------------------------------------------------------------|
--------------------1--2--1--2--1--2--4--5--4--5--5--5--5--5--4--2--4--2--1---|
--1--2--1--2--1--2--3--3--3--3--3--3--3--3--3--3--3--3--3--3------------------|
--0--0--0--0--0--0------------------------------------------------------------|
  -  -  -  -  -  -  -  -  -  -  -  -  -  -  -  -  -  -  -  -  -  -  -  -  -

------------------------------------------------------------------------------|
------------------------------------------------------------------------------|
------------------------------------------------------------------------------|
------------------------------------------------------------------------------|
---------7-7-7--10-10-10--7-7-7--------7-7-7--10-10-10--7-7-7---------7-7-7---|
--7-7-7--------------------------7-7-7-------------------------7-7-7----------|


------------------------------------------------------------------------------|
------------------------------------------------------------------------------|
------------------------------------------------------------------------------|
--8-8-8----------------------8-8-8--------------------------------------------|
--------7-7-7---------7-7-7---------7-7-7---------7-7-7--8-8-8--7-7-7---------|
---------------7-7-7-----------------------7-7-7----------------------7-7-7---|


------------------------------------------------------------------------------|
------------------------------------------------------------------------------|
------------------------------------------------------------------------------|
------------------------------------------------------------------------------|
-7-7-7--8-8-8--7-7-7---------------5-5-5----------------------5-5-5-----------|
----------------------0-0-0--3-3-3--------3-3-3--0-0-0--3-3-3-------3-3-3-----|


------------------------------------------------------------------------------|
------------------------------------------------------------------------------|
------------------------------------------------------------------------------|
------------------------------------------------------------------------------|
--1---1---1---1---2---0--------0---2---3---2---0------------------------------|
--3---3---3---3---2---0---3b---0---2---3---2---0------------------------------|
                  -   -  A.H   -   -


------------------------------------------------------------------------------|
------------------------------------------------------------------------------|
------------------------------------------------------------------------------|
------------------------------------------------------------------------------|
---------7-7-7--10-10-10--7-7-7--------7-7-7--10-10-10--7-7-7---------7-7-7---|
--7-7-7--------------------------7-7-7-------------------------7-7-7----------|


------------------------------------------------------------------------------|
------------------------------------------------------------------------------|
------------------------------------------------------------------------------|
--8-8-8----------------------8-8-8--------------------------------------------|
--------7-7-7---------7-7-7---------7-7-7---------7-7-7--8-8-8--7-7-7---------|
---------------7-7-7-----------------------7-7-7----------------------7-7-7---|


------------------------------------------------------------------------------|
------------------------------------------------------------------------------|
------------------------------------------------------------------------------|
------------------------------------------------------------------------------|
-7-7-7--8-8-8--7-7-7---------------5-5-5----------------------5-5-5-----------|
----------------------0-0-0--3-3-3--------3-3-3--0-0-0--3-3-3-------3-3-3-----|


------------------------------------------------------------------------------|
------------------------------------------------------------------------------|
------------------------------------------------------------------------------|
--------------------1--2--1--2--1--2--4--5--4--5--5--5--5--5--4--2--4--2--1---|
--1--2--1--2--1--2--3--3--3--3--3--3--3--3--3--3--3--3--3--3------------------|
--0--0--0--0--0--0------------------------------------------------------------|
  -  -  -  -  -  -  -  -  -  -  -  -  -  -  -  -  -  -  -  -  -  -  -  -  -

ĂŽnscrie-te la newsletter


Join the ranks ! LIKE us on Facebook