Backbbone Tab - Gojira






#---------------------------------PLEASE NOTE------------------------------#
#This file is the author's own work and represents their interpretation of the#
#song. You may only use this file for private study,scholarship, orresearch.#
#--------------------------------------------------------------------------#
#- File created with Instab - http://www.pconline.com/~smcarey/instab.html #
#--------------------------------------------------------------------------#

Author/Artist: Gojira
Title: Backbone
Album: From Mars To Sirius
Transcribed by: metallica44
Email: simtom3@wanadoo.fr
DGCFAD


-----------------------------------------------------------------------------|
-----------------------------------------------------------------------------|
-----------------------------------------------------------------------------|
-----------------------------------------------------------------------------|
----------9-10--9-10---------------------------------------------------------|
--0-0-0-0-0--0--0--0---------------------------------------------------------|
 PM--------------------------------------------------------------------------|
faire des retours

-----------------------------------------------------------------------------|
-----------------------------------------------------------------------------|
------------6-----------6--------------6----------6--------------------------|
------------x-----------x--------------x----------x--------------------------|
---2--2222--4---332211--4-----2--2222--4--332211--4--------------------------|
---0--0000------332211--------0--0000-----332211-----------------------------|
 PM-------    PM-----        PM-------   PM----------------------------------|

-----------------------------------------------------------------------------|
-----------------------------------------------------------------------------|
-----------------------------------------------------------------------------|
-----------------------------------------------------------------------------|
--0-0-0-0-9-10--9-10---------------------------------------------------------|
--0-0-0-0-0--0--0--0---------------------------------------------------------|
 PM--------------------------------------------------------------------------|


-----------------------------------------------------------------------------|
-----------------------------------------------------------------------------|
------------6-----------6--------------6----------6--------------------------|
------------x-----------x--------------x----------x--------------------------|
---2--2222--4---332211--4-----2--2222--4--332211--4--------------------------|
---0--0000------332211--------0--0000-----332211-----------------------------|
 PM-------    PM-----        PM-------   PM----------------------------------|


-----------------------------------------------------------------------------|
-----------------------------------------------------------------------------|
---------------77777------------------------77777----------------------------|
---------------------666---6--7--6--5--6----------666---6--7--6--5--6--------|
---2--22-222222------------x--x--x--x--x----------------x--x--x--x--x--------|
---0--00-000000------------4--5--4--3--4----------------4--5--4--3--4--------|
 PM--------------------------------------------------------------------------|

----------------------------------------------------------------------------|
----------------------------------------------------------------------------|
-11-12-11--9-11-12--9-11--8----11-12--12-14-16------------------------------|
--x--x--x--x--x--x--x--x--x-----x--x---x--x--x------------------------------|
--9-10--9--7--9-10--7--9--6-----9-10--10-12-14------------------------------|
----------------------------------------------------------------------------|
    (Suivre la batterie avec le mediator)

-----------------------------------------------------------------------------|
-----------------------------------------------------------------------------|
--------77777------------------------77777---------------------77777---------|
--------------666---6--7--6--5--6----------666---6--7--6--5--6-------666-----|
--------------------x--x--x--x--x----------------x--x--x--x--x---------------|
--------------------4--5--4--3--4----------------4--5--4--3--4---------------|
 PM--------------------------------------------------------------------------|

-----------------------------------------------------------------------------|
-----------------------------------------------------------------------------|
-----------------------------------------------------------------------------|
-----------------------------------------------------------------------------|
--2-22-222222-2-22-222222-2-22-222222----------------------------------------|
--0-00-000000-0-00-000000-0-00-000000----------------------------------------|
 PM--------------------------------------------------------------------------|

----------------------------------------------------------------------------|
----------------------------------------------------------------------------|
-11-12-11--9-11-12--9-11--8----11-12--12-14-16------------------------------|
--x--x--x--x--x--x--x--x--x-----x--x---x--x--x------------------------------|
--9-10--9--7--9-10--7--9--6-----9-10--10-12-14------------------------------|
----------------------------------------------------------------------------|

-----------------------------------------------------------------------------|
-----------------------------------------------------------------------------|
-----------------------------------------------------------------------------|
-----------------------------------------------------------------------------|
--2-22-222222-2-22-222222-2-22-222222----------------------------------------|
--0-00-000000-0-00-000000-0-00-000000----------------------------------------|
 PM--------------------------------------------------------------------------|

-----------------------------------------------------------------------------|
-----------------------------------------------------------------------------|
-----------------------------------------------------------------------------|
-----------------------------------------------------------------------------|
----------9-10--9-10---------------------------------------------------------|
--0-0-0-0-0--0--0--0---------------------------------------------------------|
 PM--------------------------------------------------------------------------|


-----------------------------------------------------------------------------|
-----------------------------------------------------------------------------|
------------6-----------6--------------6----------6--------------------------|
------------x-----------x--------------x----------x--------------------------|
---2--2222--4---332211--4-----2--2222--4--332211--4--------------------------|
---0--0000------332211--------0--0000-----332211-----------------------------|
 PM-------    PM-----        PM-------   PM----------------------------------|

----------------------------------------------------------------------------|
----------------------------------------------------------------------------|
----------------------------------------------------------------------------|
--------------------------------7-7-10-7-9----------------------------------|
--7-10-10--7-7--9-9--7-7-10-10--0-0--0-0-0--7-10-10--7-7--9-9--7-7-10-10--9-|
--0--0--0--0-0--0-0--0-0--0--0--0-0--0-0-0--0--0--0--0-0--0-0--0-0--0--0--0-|


----------------------------------------------------------------------------|
----------------------------------------------------------------------------|
----------------------------------------------------------------------------|
----------------------------------------------------------------------------|
-7-7------------------------------------------------------------------------|
-0-0------------------------------------------------------------------------|

-----------------------------------------------------------------------------|
-----------------------------------------------------------------------------|
-----------------------------------------------------------------------------|
--------------------------------7-7-10-7-9-----------------------------------|
--7-10-10--7-7--9-9--7-7-10-10--0-0--0-0-0--7-10-10--7-7--9-9--7-7-10-10--9--|
--0--0--0--0-0--0-0--0-0--0--0--0-0--0-0-0--0--0--0--0-0--0-0--0-0--0--0--0--|
PM---------------------------------------------------------------------------|
faire des retours avec le mediator

----------------------------------------------------------------------------|
----------------------------------------------------------------------------|
----------------------------------------------------------------------------|
----------------------------------------------------------------------------|
-7-7------------------------------------------------------------------------|
-0-0------------------------------------------------------------------------|
-----

-----------------------------------------------------------------------------|
-----------------------------------------------------------------------------|
------------6-----------6--------------6----------6--------------------------|
------------x-----------x--------------x----------x--------------------------|
---2--2222--4---332211--4-----2--2222--4--332211--4--------------------------|
---0--0000------332211--------0--0000-----332211-----------------------------|
 PM-------    PM-----        PM-------   PM----------------------------------|


-----------------------------------------------------------------------------|
-----------------------------------------------------------------------------|
-----------------------------------------------------------------------------|
-----------------------------------------------------------------------------|
--2--22--222222--------------------------------------------------------------|
--0--00--000000--------------------------------------------------------------|
 PM--------------------------------------------------------------------------|

ĂŽnscrie-te la newsletter


Join the ranks ! LIKE us on Facebook