Backbone Tab - Gojira






-------------------------------------------------------------------------------
     Backbone - Gojira
-------------------------------------------------------------------------------
Tabbed by:arseface
Email:sgawood@hotmail.com

Tuning:
Riff A
e|-----------------------------------------------------------------------------|
B|-----------------------------------------------------------------------------|
G|-----------------------------------------------------------------------------|
D|-----------------------------------------------------------------------------|
A|-----------------------------------------------------------------------------|
E|3333-45-45-3333-45-45-3333-45-45-3333-45-45----------------------------------|x2
Riff B
e|---------------------------------------------------------------------------|
B|---------------------------------------------------------------------------|
G|---------------------------------------------------------------------------|
D|---------------------------------------------------------------------------|
A|----------7------7---------------------------------------------------------|
E|-3-333333--333433----------------------------------------------------------|

Riff A x2
RiffB x1
Riff A x2
Riff B x1

Riff D
e|---------------------------------------------------------------------------|
B|---------------------------------------------------------------------------|
G|---------------------------------------------------------------------------|
D|---------------------------------------------------------------------------|
A|---------------------------------------------------------------------------|
E|-0-00-00-00000-------------------------------------------------------------|

Riff E
e|---------------------------------------------------------------------------|
B|---------------------------------------------------------------------------|
G|10------------------------------------------------------------------------|
D|---9-34342-----------------------------------------------------------|
A|---------------------------------------------------------------------------|
E|---------------------------------------------------------------------------|x2
Riff F
e|-----------------------------------------------------------------------------|
B|-----------------------------------------------------------------------------|
G|9109109109791091214--------------------------------------------|
D|-----------------------------------------------------------------------------|
A|-----------------------------------------------------------------------------|
E|-----------------------------------------------------------------------------|

ĂŽnscrie-te la newsletter


Like us on Facebook