From Mars Tab - Gojira






#---------------------------------PLEASE NOTE------------------------------#
#This file is the author's own work and represents their interpretation of the song. You
only use this file for private study, scholarship, or research.#
#--------------------------------------------------------------------------#
#-File created with Instab - http://www.pconline.com/~smcarey/instab.html--#
#--------------------------------------------------------------------------#

Author/Artist: Gojira
Title: From Mars
Album: From Mars To Sirius
Transcribed by: Jaymz88
DGCFAD


----------------------------------------------------------------------------|
----0------0------0------0-----0------0------0------0-----0-----0-----0-----|
------0------0------0------0-----0------0------0------0-----0-----0-----0---|
--4------5------7------9-----10-----7------9-----5-----4-----4-----4-----4--|
----------------------------------------------------------------------------|
----------------------------------------------------------------------------|


-----------------------------------------------------------------------------|
------0-----0-----0-----0-----0-----0-----0-----0------0-----0-----0-----0---|
-0------0-----0-----0-----0-----0-----0-----0-----0------0-----0-----0-----0-|
----7-----7-----7-----7-----4-----5-----7-----9-----10-----7-----9-----5-----|
-----------------------------------------------------------------------------|
-----------------------------------------------------------------------------|


----------------------------------------------------------------------------|
---0-----0-----0-----0-----0-----0-----0-----0-----0-----0-----0-----0------|
-----0-----0-----0-----0-----0-----0-----0-----0-----0-----0-----0-----0----|
-4-----4-----4-----4-----9-----9-----9-----9-----4-----5-----7-----9-----10-|
----------------------------------------------------------------------------|
----------------------------------------------------------------------------|


-----------------------------------------------------------------------------|
-0-----0-----0-----0-----0-----0-----0-----0-----0-----0-----0-----0-----0---|
---0-----0-----0-----0-----0-----0-----0-----0-----0-----0-----0-----0-----0-|
-----7-----9-----5-----4-----4-----4-----4-----7-----7-----7-----7-----4-----|
-----------------------------------------------------------------------------|
-----------------------------------------------------------------------------|


----------------------------------------------------------------------------|
---0-----0-----0------0-----0-----0-----0-----0-----0-----0-----0-----0-----|
-----0-----0-----0------0-----0-----0-----0-----0-----0-----0-----0-----0---|
-5-----7-----9-----10-----7-----9-----5-----4-----4-----4-----4-----9-----9-|
----------------------------------------------------------------------------|
----------------------------------------------------------------------------|


----------------------------------------------------------------------------|
-0-----0-----0------0------0------0------0------0------0------0-------------|
---0-----0-----0------0------0------0------0------0------0------0-----------|
-----9-----9-----10-----10-----10-----10-----10-----10-----10-----10--------|
----------------------------------------------------------------------------|
----------------------------------------------------------------------------|


-----------------------------------------------------------------------------|
----0------0------0------0-----0------0-----0------0-----0-----0-----0-----0-|
------0------0------0------0-----0------0-----0------0-----0-----0-----0-----|
--4------5------7------9-----10-----7-----9------5-----4-----4-----4-----4---|
-----------------------------------------------------------------------------|
-----------------------------------------------------------------------------|


-----------------------------------------------------------------------------|
------0-----0-----0-----0-----0-----0-----0-----0------0-----0-----0-----0---|
-0------0-----0-----0-----0-----0-----0-----0-----0------0-----0-----0-----0-|
----7-----7-----7-----7-----4-----5-----7-----9-----10-----7-----9-----5-----|
-----------------------------------------------------------------------------|
-----------------------------------------------------------------------------|


----------------------------------------------------------------------------|
---0-----0-----0-----0-----0-----0-----0-----0-----0-----0-----0-----0------|
-----0-----0-----0-----0-----0-----0-----0-----0-----0-----0-----0-----0----|
-4-----4-----4-----4-----9-----9-----9-----9-----4-----5-----7-----9-----10-|
----------------------------------------------------------------------------|
----------------------------------------------------------------------------|


-----------------------------------------------------------------------------|
-0-----0-----0-----0-----0-----0-----0-----0-----0-----0-----0-----0-----0---|
---0-----0-----0-----0-----0-----0-----0-----0-----0-----0-----0-----0-----0-|
-----7-----9-----5-----4-----4-----4-----4-----7-----7-----7-----7-----4-----|
-----------------------------------------------------------------------------|
-----------------------------------------------------------------------------|


----------------------------------------------------------------------------|
---0-----0-----0------0-----0-----0-----0-----0-----0-----0-----0-----0-----|
-----0-----0-----0------0-----0-----0-----0-----0-----0-----0-----0-----0---|
-5-----7-----9-----10-----7-----9-----5-----4-----4-----4-----4-----9-----9-|
----------------------------------------------------------------------------|
----------------------------------------------------------------------------|


-----------------------------------------8--7--5--3--------------------------|
-0-----0-----0------0------0------0--------------------0-----0-----0-----0---|
---0-----0-----0------0------0------0--------------------0-----0-----0-----0-|
-----9-----9-----10-----10-----10-----10-------------4-----5-----7-----9-----|
-----------------------------------------------------------------------------|
-----------------------------------------------------------------------------|


-----------------------------------------------------------------------------|
----0-----0-----0-----0-----0-----0-----0-----0-----0-----0-----0-----0----0-|
------0-----0-----0-----0-----0-----0-----0-----0-----0-----0-----0-----0----|
-10-----7-----9-----5-----4-----4-----4-----4-----7-----7-----7-----4--------|
-----------------------------------------------------------------------------|
-----------------------------------------------------------------------------|


-----------------------------------------------------------------------------|
-----0-----0------0-----0-----0-----0-----0-----0-----0-----0-----0-----0----|
-0-----0-----0------0-----0-----0-----0-----0-----0-----0-----0-----0-----0--|
---7-----9-----10-----7-----9-----5-----4-----4-----4-----4-----9-----9------|
-----------------------------------------------------------------------------|
-----------------------------------------------------------------------------|


----------------------------------------------------------------------------|
---0-----0-----0-----0-----0-----0------0-----0-----0-----0-----0-----0-----|
-----0-----0-----0-----0-----0-----0------0-----0-----0-----0-----0-----0---|
-9-----9-----4-----5-----7-----9-----10-----7-----9-----5-----4-----4-----4-|
----------------------------------------------------------------------------|
----------------------------------------------------------------------------|


----------------------------------------------------------------------------|
-0-----0-----0-----0-----0-----0-----0-----0-----0-----0------0-----0-----0-|
---0-----0-----0-----0-----0-----0-----0-----0-----0-----0------0-----0-----|
-----4-----7-----7-----7-----7-----4-----5-----7-----9-----10-----7-----9---|
----------------------------------------------------------------------------|
----------------------------------------------------------------------------|


-----------------------------------------------------------------------------|
-----0-----0-----0-----0-----0-----0-----0-----0-----0-----0-----0-----0-----|
-0-----0-----0-----0-----0-----0-----0-----0-----0-----0-----0-----0-----0---|
---5-----4-----4-----4-----4-----4-----4-----4-----4-----5-----5-----5-----5-|
-----------------------------------------------------------------------------|
-----------------------------------------------------------------------------|

-----------------------------------------------------------------------------|
-0-----0-----0-----0-----0-----0-----0-----0-----0-----0-----0-----0-----0---|
---0-----0-----0-----0-----0-----0-----0-----0-----0-----0-----0-----0-----0-|
-----5-----5-----5-----5-----5-----5-----5-----5-----5-----5-----5-----5-----|
-----------------------------------------------------------------------------|
-----------------------------------------------------------------------------|


----------------------------------------------------------------------------|
----------------------------------------------------------------------------|
----------------------------------------------------------------------------|
-5--------------------------------------------------------------------------|
----------------------------------------------------------------------------|
----------------------------------------------------------------------------|
rpter cette partie une deuxime fois

ĂŽnscrie-te la newsletter


Join the ranks ! LIKE us on Facebook