Ocean Planet Tab - Gojira






#----------------------------------PLEASE NOTE------------------------------#
#This file is the author's own work and represents their interpretation of the#
#song. You may only use this file for private study, scholarship, or research.#
#---------------------------------------------------------------------------#
#- File created with Instab - http://www.pconline.com/~smcarey/instab.html -#
#---------------------------------------------------------------------------#

From Mars To Sirius
Gojira
Ocean Planet
DGCFAD

-----------------------------------------------------------------------------|
-----------------------------------------------------------------------------|
----------------------------------2----2----2----2-----2----2----------------|
-----------------------------------------------------------------------------|
-------------------------3-2-1-----------------------------------------------|
--3-3-3-2-2-2-1-1-1--3b--3-2-1--3----3----3----2----2-----2----3-3-3-2-2-2-1-|
 PM----------------  A.H -----                                 --------------|

-----------------------------------------------------------------------------------------------------------------------------------------------------------|
-----------------------------------------------------------------------------------------------------------------------------------------------------------|
----------------2----2-----2-----2-----2b4r2---------------------------------------------------------------------------------------------------------------|
--------------------------------------------------------------------------------------3-2-1---------------------------------------------------------3-2-1--|
-1-1--3b-3-2-1--3----3----3-----2-----2---------3-3-3-2-2-2-1-1-1--3b--3-2-1-------------------------------------------------------------------------------|
--- A.H -----                                  ----------------- A.H  -------------------------------------------------------------------------------------|

-----------------------------------------------------------------------------|
-----------------------------------------------------------------------------|
-----2-----2-----2-----2----2----2----------------------------------2----2---|
-----------------------------------------------------------------------------|
-----------------------------------------------------------3-2-1-------------|
--3-----3-----3-----2----2----2-----3-3-3-2-2-2-1-1-1--3b--3-2-1--3----3-----|
                                    ----------------- A.H  ------------------|

------------------------------------------------------------------------------|
------------------------------------------------------------------------------|
---2---2---2---2----------------------------------------------------------2---|
-------------------2--2-2---2-2---2--2-2--------------------------------------|
-------------------2--2-2---2-2---2--2-2-------------------------3-2-1--------|
-3---2---2---2-----0--0-0---0-0---0--0-0--3-3-3-2-2-2-1-1-1--3b--3-2-1--3---3-|
                                          ----------------- A.H  -------------|

-----------------------------------------------------------------------------|
-----------------------------------------------------------------------------|
-2----2----2-----2-----2----------------------------------2----2----2----2---|
-----------------------------------------------------------------------------|
-------------------------------------------------3-2-1-----------------------|
----3----2----2-----2-----3-3-3-2-2-2-1-1-1--3b--3-2-1--3---3-----3----2---2-|
                          ----------------- A.H  ----------------------------|

-----------------------------------------------------------------------------|
-----------------------------------------------------------------------------|
-2-----2----------------------------------2---2---2---2---2b4r2--------------|
-----------------------------------------------------------------------------|
---------------------------------3-2-1---------------------------------------|
----2-----3-3-3-2-2-2-1-1-1--3b--3-2-1--3---3---3---2---2--------3-3-3-2-2-2-|
          -----------------  A.H -----                           ------------|

--------------------------------------------------------------------------|--|
--------------------------------------------------------------------------|--|
---------------------2----2----2----2-----2----2--------------------------|--|
---------------------------------------------------2--2-2--2-2--2-2-2-----|--|
------------3-2-1----------------------------------2--2-2--2-2--2-2-2-----|--|
-1-1-1--3b--3-2-1--3---3----3-----2----2----2------0--0-0--0-0--0-0-0-----|--|
 -----  A.H -----------------------------------------------------------------|

-----------------------------------------------------------------------------|
-----------------------------------------------------------------------------|
-----------------------------------------------------------------------------|
--2--2-2--2-2--2--2-2--2--2-2--2-2--2--2-2-------2--2-2--2-2--2--2-2---------|
--2--2-2--2-2--2--2-2--2--2-2--2-2--2--2-2-------2--2-2--2-2--2--2-2---------|
--0--0-0--0-0--0--0-0--0--0-0--0-0--0--0-0--17/--0--0-0--0-0--0--0-0--0-0-0--|
                                                                    PM-----

-----------------------------------------------------------------------------|
-----------------------------------------------------------------------------|
-------------------6-6-6-6-6-------------------------------------------------|
-3-------3---3-3---4-4-4-4-4--2--2-2--2-2--2--2-2--2--2-2--2-2--2--2-2-------|
-1-------1---1-1---4-4-4-4-4--2--2-2--2-2--2--2-2--2--2-2--2-2--2--2-2-------|
-0-0-0-0-0-0-0-0-0------------0--0-0--0-0--0--0-0--0--0-0--0-0--0--0-0--0-0--|
   -----   -     -                                                      -----|

-------------------------------------------------------------------|---------|
-------------------------------------------------------------------|---------|
---------------------6-6-6-6-6-------------------------------------|---------|
---3-------3---3-3---4-4-4-4-4--2--2-2--2-2------------------------|---------|
---1-------1---1-1---4-4-4-4-4--2--2-2--2-2------------------------|---------|
-0-0-0-0-0-0-0-0-0-0------------0--0-0--0-0--0-0-0-0-0-0-0-0-0-0---|---------|
 -   -----   -     -                         -------------------

-----------------------------------------------------------------------------|
-----------------------------------------------------------------------------|
-----------------------------------------------------------------------------|
-------------------------------------------x-x-x-x-x-x-x-x-x-x-x-x-x-x-x-x-x-|
----------------------4--------------------4-4-4-4-4-4-4-4-4-4-4-4-4-4-4-4-4-|
--0-0-0-0-0-0-0-0-0-0-4-0-0-0-3b--0-0-0-0------------------------------------|
                        ----- A.H -------------------------------------------|

-----------------------------------------------------------------------------|
-----------------------------------------------------------------------------|
-----------------------------------------------------------------------------|
-x-x-x-x-x----------x-x-x-x-x-x-x-x-x-x-x-x-x-x-x-x-x-x-x-x-x----------------|
-4-4-4-4-4---4---3--4-4-4-4-4-4-4-4-4-4-4-4-4-4-4-4-4-4-4-4-4--4-------------|
-------------4-0-3---------------------------------------------4-0-0-0-------|
               -                                                 ------------|

-----------------------------------------------------------------------------|
-----------------------------------------------------------------------------|
-----------------------------------------------------------------------------|
-----------x-x-x-x-x-x-x-x-x-x-x-x-x-x-x-x-x-x-x-x-x-x--44-44-44-44-44-44-44-|
-----------4-4-4-4-4-4-4-4-4-4-4-4-4-4-4-4-4-4-4-4-4-4--44-44-44-44-44-44-44-|
-3b-0-0-0-----------------------------------------------22-22-22-22-22-22-22-|
 A.H-----

---------------------------------------------------------------|-------------|
---------------------------------------------------------------|-------------|
---------------------------------------------------------------|-------------|
-44-44-44-44-44-44-44--3--44-44-44-44-44-44-44-44-44-44-44-44--|-------------|
-44-44-44-44-44-44-44--3--44-44-44-44-44-44-44-44-44-44-44-44--|-------------|
-22-22-22-22-22-22-22--1--22-22-22-22-22-22-22-22-22-22-22-22--|-------------|


-----------------------------------------------------------------------------|
-----------------------------------------------------------------------------|
--2-2-2-2--2-2-2-2--2-2-2-2--2-2-2-2/1----2-2-2-2--2-2-2-2--2-2-2-2--2-2-2-2-|
--0-0-0-0--0-0-0-0--0-0-0-0--0-0-0-0------0-0-0-0--0-0-0-0--0-0-0-0--0-0-0-0-|
--x-x-x-x--x-x-x-x--x-x-x-x--0-0-0-0------x-x-x-x--x-x-x-x--x-x-x-x--0-0-0-0-|
--3-3-3-3--2-2-2-2--1-1-1-1--0-0-0-0------3-3-3-3--2-2-2-2--1-1-1-1--0-0-0-0-|


----|-------------------------------x/------------------------------x/--|
----|-------------------------------x/------------------------------x/--|
-1--|-------------------------------x/------------------------------x/--|
----|-------------------------------x/------------------------------x/--|
----|-------------------------------x/------------------------------x/--|
----|-33-22-11-22-33--3b--33-22-11-----33-22-11-22-33--3b--33-22-11-----|
      --------------      --------  A.H---------------------------------|                             A.H

ĂŽnscrie-te la newsletter


Like us on Facebook