Torii (ver2) Tab - Gojira






#---------------------------------PLEASE NOTE-------------------------------#
#This file is the author's own work and represents their interpretation of the#
#song. You may only use this file for private study, scholarship, or research.#
#---------------------------------------------------------------------------#
#- File created with Instab - http://www.pconline.com/~smcarey/instab.html -#
#---------------------------------------------------------------------------#

Author/Artist: Gojira
Title: Torii
Album: The Link
Transcribed by: Jaymz88
DGCFAD


--12---------------------------------------------------12---------------------|
------12---------------------------------------12----------12-----------------|
----------12---------------------------12----------12----------12-------------|
--------------14---------------14----------14----------------------14---------|
------------------12---------------12----------------------------------12-----|x2
---------------------------12-------------------------------------------------|

--12---------------------------------------------------12--------------------|
------12---------------------------------------12----------12----------------|
----------12---------------------------12----------12----------12------------|
--------------14---------------14----------14----------------------1414/17--|
------------------12---------------12----------------------------------------|
---------------------------12------------------------------------------------|


--7---------------------------------------7----------------------------------|
-----7------------------------------7--------7-------------------------------|
--------7---------------------7--------7--------7----------------------------|
-----------9------------9--------9-----------------9-------------------------|
--------------7------------7--------------------------7----------------------|
---------------------7-------------------------------------------------------|

ĂŽnscrie-te la newsletter


Join the ranks ! LIKE us on Facebook