Where Dragons Dwell (ver2) Tab - Gojira






#---------------------------------PLEASE NOTE-------------------------------#
#This file is the author's own work and represents their interpretation of the#
#song. You may only use this file for private study, scholarship, or research.#
#---------------------------------------------------------------------------#
#- File created with Instab - http://www.pconline.com/~smcarey/instab.html -#
#---------------------------------------------------------------------------#

Author/Artist: Gojira
Title: Where Dragons Dwell
Album: From Mars To Sirius
Transcribed by: Jaymz88
DGCFAD

-----------------------------------------------------------------------------|
-----------------------------------------------------------------------------|
---------0----------------------0--------------------------------------------|
-10-10--10-10------10--9--9--7--9--9--7--7/----------------------------------|
--x--x------x-------x--x--x--x-----x--x--x---2-1-0-1-2-1---------------------|
--8--8------8--0-0--8--7--7--5-----7--5--5/--2-1-0-1-2-1-2h3-3v---0-0-0-3v---|
             PM- -                         PM-----------         PM----------|A.H

-----------------------------------------------------------------------------|
-----------------------------------------------------------------------------|
-----------------------------------------------------------------------------|
--5--4-4--5--4---------------------------------------------------------------|
--3--2-2--3--2-----------------x3--------------------------------------------|
--3--2-2--3--2--2-1-0-1-2-1-0------------------------------------------------|
              PM-------------------------------------------------------------|

------------------------------------------------------------------------------|
------------------------------------------------------------------------------|
---------0----------------------0---------------------------------------------|
-10-10--10-10------10--9--9--7--9--9--7--7/-----------------------------------|
--x--x------x-------x--x--x--x-----x--x--x---2-1-0-1-2-1----------------------|
--8--8------8--0-0--8--7--7--5-----7--5--5/--2-1-0-1-2-1-2h3-3v---0-0-0-3v----|
             PM- -                         PM-----------          PM----------|A.H

-----------------------------------------------------------------------------|
-----------------------------------------------------------------------------|
-----------------------------------------------------------------------------|
--5--4-4--5--4--5--7---------------------------------------------------------|
--3--2-2--3--2--3--5---------------------------------------------------------|
--3--2-2--3--2--3--5---------------------------------------------------------|


-----------------------------------------------------------------------------|
-----------------------------------------------------------------------------|
-----------------------------------------------------------------------------|
--------21212121212121212121212121212121-------------------------------------|
---------x-x-x-x-x-x-x-x-x-x-x-x-x-x-x-x--------x4---------------------------|
--0--0--19191919191919191919191919191919-------------------------------------|
 PM--

------------------------------------------------------------------------------|
------------------------------------------------------------------------------|
------------------------------------------------------------------------------|
--------5555555555555555555------555555555555555555---------------------------|
-----3--xxxxxxxxxxxxxxxxxxx---3--xxxxxxxxxxxxxxxxxx------2--------------------|
--0--3--3333333333333333333-0-3--333333333333333333---0--2--------------------|
 PM---                     PM--                     PM------------------------|

---------------------------------------------------|----------------------x/--|
---------------------------------------------------|----------------------x/--|
---------------------------------------------------|----------------------x/--|
-44444444444444444--------44444444444444444--------|----------------------x/--|
-xxxxxxxxxxxxxxxxx-----2--xxxxxxxxxxxxxxxxx----x4--|----------------------x/--|
-22222222222222222--0--2--22222222222222222--------|--0--0-0-0--0--3v---------|
                  PM----                            PM------------------------| A.H    A.H

-----------------------------------------------------------------------------|
-----------------------------------------------------------------------------|
-----0--0-----------------------0--------------------------------------------|
-10-10-10-10-------10--9--9--7--9--9--7--7---7--5-5----5--4-4----------------|
--x--------x--------x--x--x--x-----x--x--x---x--x-x----x--x-x----------------|
--8--------8---0-0--8--7--7--5-----7--5--5---5--3-3----3--2-2----------------|
              PM--

------------------------------------------------------------------------------|
------------------------------------------------------------------------------|
--------------------------------------------0---0----------------------0------|
---------------------------------------10--10-----10------10--9--9--7--9------|
-----------2----------2-----------------x----------x-------x--x--x--x---------|
-2h3p2--2--2--2-2-2h3-2---2-1-0-1-2-1-0-8----------8--0-0--8--7--7--5---------|
       PM   PM---       PM-------------              PM-----------------------|

------------------------------------------------------------------------------|
------------------------------------------------------------------------------|
------------------------------------------------------------------------------|
-9--7--7----------------------------------5--4-4--5--4------------------------|
-x--x--x---2-1-0-1-2-1--------------------3--2-2--3--2------------------------|
-7--5--5---2-1-0-1-2-1-2h3-3v---0-0-3v----3--2-2--3--2--2-1-0-1-2-1-0---------|
         PM-----------        PM---A.H                PM----------------------|

------------------------------------------------------------------------------|
------------------------------------------------------------------------------|
---------0----------------------0---------------------------------------------|
-10-10--10-10------10--9--9--7--9--9--7--7/-----------------------------------|
--x--x------x-------x--x--x--x-----x--x--x---2-1-0-1-2-1----------------------|
--8--8------8--0-0--8--7--7--5-----7--5--5/--2-1-0-1-2-1-2h3-3v---0-0-0-3v----|
             PM- -                         PM-----------          PM----------|A.H


-----------------------------------------------------------------------------|
-----------------------------------------------------------------------------|
-----------------------------------------------------------------------------|
--5--4-4--5--4--5--7---------------------------------------------------------|
--3--2-2--3--2--3--5---------------------------------------------------------|
--3--2-2--3--2--3--5---------------------------------------------------------|


-----------------------------------------------------------------------------|
-----------------------------------------------------------------------------|
-----------------------------------------------------------------------------|
--------21212121212121212121212121212121-------------------------------------|
---------x-x-x-x-x-x-x-x-x-x-x-x-x-x-x-x--------x2---------------------------|
--0--0--19191919191919191919191919191919-------------------------------------|
 PM-


------------------------------------------------------------------------------|
------------------------------------------------------------------------------|
------------------------------------------------------------------------------|
--------5555555555555555555------555555555555555555---------------------------|
-----3--xxxxxxxxxxxxxxxxxxx---3--xxxxxxxxxxxxxxxxxx------2--------------------|
--0--3--3333333333333333333-0-3--333333333333333333---0--2--------------------|
 PM---                     PM--                     PM------------------------|

---------------------------------------------------|--------------------------|
---------------------------------------------------|--------------------------|
---------------------------------------------------|--------------------------|
-44444444444444444--------44444444444444444--------|--------------------------|
-xxxxxxxxxxxxxxxxx-----2--xxxxxxxxxxxxxxxxx----x4--|--------------------------|
-22222222222222222--0--2--22222222222222222--------|--0--0-0------------------|
                  PM----                            PM------------------------|

ĂŽnscrie-te la newsletter


Like us on Facebook