Funeral Procession Tab - Gorgoroth






Artist: Gorgoroth
Title: Funeral procession
Album: Under the sign of Hell

Tabbed by elc (elc@o2.pl;elc@onet.pl)

As with any Gorgoroth song, the sound is very distorted and because of this
hearing every note is sometimes imposible. If U find some riff incorect, feel
free to tell me.

Riff 1, tremolo picking,
e|---------------1-------1-----------------------------------------|
B|-------------3-------3-------------------------------------------|
G|-2-2-2-2-3-3-----2-2----2-2-6-6-14141414151512121414141414141414-|
D|-0---------------------------------------------------------------|
A|-----------------------------------------------------------------|
E|-----------------------------------------------------------------|

Riff 2, "normal" picking, not sure for this part:-------
e|-------1-----------1-----------1-----------1-----|    |
B|-----3---3-------3---3-------3---3-------3---3---|    |
G|---2-------2---2-------2---2-------2---2-------2-|    |
D|-0-----------0-----------0-----------0-----------|    |
A|-------------------------------------------------|    |
E|-------------------------------------------------|    |
                                                        |
e|-------------------------------------------------|    |
B|-------3-----------3-----------3-----------2-----|    |
G|---3-3---3-3---3-3---3-3---2-2---2-2---2-2---2---| 






Like us on Facebook