New Eye Solo Bass Tab - Gorgoroth






G-----------------------------------------------------------18----------|
D-----------------------------------------------------------------------|
A--------------------------------------14----16-16-16-16-16----14-15-16-|
E-9-9-9-9978-9-9-9-9978-9-9-9-0--14-16----16----------------------------|
cont'd
G------------------------------------5-----------------------------------|
D-16-14---------------5-------------------------------8--------------9---|
A------16-14---------------------------------------------7---7--11-------|
E------------16-14-12--14-04-9-7-9-0--5-9-9-9-9-9-7-8--9---9-------------|
cont'd
G--------------------------------------------------------------------|
D-11-11-11-11-11-9-10-11-9-10-11-9-10-11-9-10-11-9-------------------|
A--------------------------------------------------11-9-7-9-7-------|
E--------------------------------------------------------------9-7-8-|
cont'd
G--------------------------------------------------------------------------|
D-----------------------------------------------11-11-11-11-11-11-11-11-11-|
A---------------------------------------------11---------------------------|
E-9-9-9-9-9-9-7-8-9-9-9-9-9-9-9-9-9-9-9-9-9-9------------------------------|
cont'd






Like us on Facebook