El Manana (ver2) Bass Tab - Gorillaz






Song: El Manana
Artist: Gorrilaz
Difficulty: Medium
Tabbed: MastaBassa (Thats me)
Tuning: G-D-A-D

Intro/Outro
G|--------------------------------------------------------------------|
D|--------------------------------------------------------------------|
A|-0-0-0-0-0-0-0-0----------------------------------------------------|
E|------------------3-3-3-3-3-3-3-3--1-1-1-1-1-1-1-1--0-0-0-0-0-0-0-0-| 

Verse 1
G|---------------------------------------------------------|
D|---------------------------------------------------------|
A|-0-0-0-0-0-0---------------------------------------------|
E|-----------------3-3-3-3-3-3---1-1-1-1-1-1---0-0-0-0-0-0-|

G|------------------------|
D|------------------------|
A|-0-0-0--00-0-----------|
E|------------------------|

Verse 2
G|-------------------------------------|
D|-------2-2---------------------------|
A|-0-0-0-----0-0--------2-3-2----------|
E|----------------33--3-------3--------|

Verse 3
G|----------------------------------------------------------|
D|----------------------------------------------------------|
A|-0-0-0-0-0-0----------------------------------------------|
E|------------------3-3-3-3-3-3---1-1-1-1-1-1---0-0-0-0-0-0-|

Order
Intro x4
Verse1 x1
Verse2 x2
Short Bass Break
Verse3 x2
Verse2 x4
Short Bass Break
Verse2 x2
Short Bass Break
Verse3 x2
Verse2 x4
Outro x Until End


Good Luck Have Fun!
Any Questions, Comments, Complaints, Threats please E-Mail me at
MastaBassa72090@gmail.com

ĂŽnscrie-te la newsletter


Like us on Facebook