Feel Good Inc (ver7) Bass Tab - Gorillaz






I have been trying to figure this tab out for ages!! So i am pretty sure this is right.
Intro
|---------|--------------|----------|--------------|----------|
|---------|--------------|----------|--------------|----------|
|---------|--------------|----------|--------------|----------|
|---------|-0---0-2-3--8-|--7-------|-5---5-7-6--3-|--0-------|



|--------------|----------|--------------|----------|
|--------------|----------|--------------|----------|
|--------------|----------|--------------|----------|
|-0---0-2-3--8-|--7-------|-5---5-7-6--3-|--0-9/12--|



|--------------|----------|--------------|----------|
|--------------|----------|--------------|----------|
|--------------|----------|--------------|----------|
|-0---0-2-3--8-|--7-------|-5---5-7-6--3-|--0-------|x2


Verse 1
|--------------|----------|--------------|----------|
|--------------|----------|--------------|----------|
|--------------|----------|--------------|----------|
|-0---0-2-3--8-|--7-------|-5---5-7-6--3-|--0-9/12--|x2



|--------------|----------|--------------|----------|
|--------------|----------|--------------|----------|
|--------------|----------|--------------|----------|
|-0---0-2-3--8-|--7-------|-5---5-8-7--3-|--0-9/12--|



|--------------|----------|--------------|----------|
|--------------|----------|--------------|----------|
|--------------|----------|--------------|----------|
|-0---0-2-3--8-|--7-------|-5---5-7-6--3-|--0-9/12--|


Bridge 1                           
|----------------|----------------|-----|
|----------------|----------------|-----|
|----------------|----------------|-----|
|-12-10--7--3--0-|-0--0-0-x-0-x-0-|-----|


Then you have the chorus.



Verse 2 (Rappers)
|--------------|----------|--------------|----------|
|--------------|----------|--------------|----------|
|--------------|----------|--------------|----------|
|-0---0-2-3--8-|--7/5-----|-----5-7-6--3-|--0-------|



|--------------|----------|--------------|----------|
|--------------|----------|--------------|----------|
|--------------|----------|--------------|----------|
|-0---0-2-3--8-|--7/5-----|-----5-8-7--3-|--0-9/12--|



|--------------|----------|--------------|----------|
|--------------|----------|--------------|----------|
|--------------|----------|--------------|----------|
|-0---0-2-3--8-|--7/5-----|-----5-8-7--3-|--0-------|



|--------------|----------|--------------|----------|
|--------------|----------|--------------|----------|
|--------------|----------|--------------|----------|
|-0---0-2-3--8-|--7/5-----|-----5-7-6--3-|--0-9/12--|x3


Then you have the chorus again.


Ending
|--------------|----------|--------------|----------|
|--------------|----------|--------------|----------|
|--------------|----------|--------------|----------|
|-0---0-2-3--8-|--7/5-----|-----5-8-7--3-|--0-9/12--|



|--------------|----------|--------------|----------|
|--------------|----------|--------------|----------|
|--------------|----------|--------------|----------|
|-0---0-2-3--8-|--7/5-----|-----5-8-7--3-|--0-------|



|--------------|----------|--------------|----------|
|--------------|----------|--------------|----------|
|--------------|----------|--------------|----------|
|-0---0-2-3--8-|--7/5-----|-----5-7-6--3-|--0-9/12--|



|--------------|----------|--------------|----------|
|--------------|----------|--------------|----------|
|--------------|----------|--------------|----------|
|-0---0-2-3--8-|--7/5-----|-----5-7-6--3-|--0-------|

And thats it!! Listen to the song to get it right. PLEASE VOTE!!!

ĂŽnscrie-te la newsletter


Like us on Facebook