If The World Intro Tab - Guns N Roses






Artist: Guns N' Roses
Song: If The World - Intro
Tabber: Jack Snowball

Eb Tuning - Half step down
/-slide
h-hammer on
p-pull off
B-bend
R-release bend
o & +-wah wah pedal

Tabbed Lead [Buckethead] & Rhythm guitars.
Tempo - 146

Lead
E|------------1111|11---------1212-12|12///15-12-11--12p11|
B|----------------|------------------|--------------------|
G|----------------|------------------|--------------------|
D|----------------|------------------|--------------------|
A|----------------|------------------|--------------------|
E|----------------|------------------|--------------------|

Rythm
E|----------------|------------------|--------------------|
B|----------------|------------------|--------------------|
G|-------6/8------|---6-6-6/8--------|-----------6/8------|
D|----------------|------------------|--------------------|
A|-------4/6------|---4-4-4/6--------|-----------4/6------|
E|----------------|------------------|--------------------|

Lead
E|----------------|-11-13-14-1413-13|13\11-10-10h11p10--|
B|9h11-11----11h12|15----------------|------------------11|
G|----------------|------------------|--------------------|
D|----------------|------------------|--------------------|
A|----------------|------------------|--------------------|
E|----------------|------------------|--------------------|

Rythm
E|----------------|------------------|--------------------|
B|----------------|------------------|--------------------|
G|---6-6-6/8------|-----------6/8----|---6-6-6-8----------|
D|----------------|------------------|--------------------|
A|---4-4-4/6------|-----------4/6----|---4-4-4/6----------|
E|----------------|------------------|--------------------|


Lead
E|----------------|--------14p13-11--|--------------------|
B|12---11---------|----------------11|--------------------|
G|--------11-8B-R8|(8)--(6)----------|11-----10-----------| Bend 1.5
D|----------------|------------------|-----------13-------|
A|----------------|------------------|--------------------|
E|----------------|------------------|--------------------|

Rythm                                          O    +   +
E|------------------|----------------|--------------x---x-|
B|------------------|----------------|--------------x---x-|
G|-----------6/8----|---6-6-6/8------|---------6/8--x---x-|
D|------------------|----------------|--------------------|
A|-----------4/6----|---4-4-4/6------|---------4/6--x---x-|
E|------------------|----------------|--------------------|

The rest of the intro is easy, simply repeat the above rhythm section, but add the 
pick scrapes as demonstrated in the final bar above.

ĂŽnscrie-te la newsletter


Join the ranks ! LIKE us on Facebook