Broken Glass Syndrome Intro Chords - Halifax




Halifax
"Broken Glass Syndrome" [intro]
By: JJ Murphy
Tuning: Drop C (CGCFAD)
Contact: jj@defiancedesigns.com

|-------------------------------------------------------------------------------------|
|-------------------------------------------------------------------------------------|
|---9-5--9-5---9-5---9-5---9-5----9-5---9-5------------------------10-10-10-10-10-----|
|-X-----X-----X-----X-----X-----X-----X-----X--888-888-888-888-888-10-10-10-10-10--55-|
|-8-----8-----8-----8-----8-----8-----8-----8--888-888-888-888-888-8--8--8--8--8---55-|
|-8-----8-----8-----8-----8-----8-----8-----8--888-888-888-888-888-----------------55-|

-----------------------------------------------------------------------------------|
-----------------------------------------------------------------------------------|
-----------------------------------------------------------------------10-10-10-10-|
-55-55-55-88-88-88-88--55555555555555--88888888888-888-888-888-888-888-10-10-10-10-|
-55-55-55-88-88-88-88--55555555555555--88888888888-888-888-888-888-888-8--8--8--8--|
-55-55-55-88-88-88-88--55555555555555--88888888888-888-888-888-888-888-------------|
                       ..............  ...........

-----------------------------------------------|
-----------------------------------------------|
-----------------------------------------------|
-55-55-55-55-55-55-55-88-88-88-88-66-66-66-66--|
-55-55-55-55-55-55-55-88-88-88-88-66-66-66-66--|
-55-55-55-55-55-55-55-88-88-88-88-66-66-66-66--|

ĂŽnscrie-te la newsletter


Join the ranks ! LIKE us on Facebook