Finished In A Day Chords - Halifax




Finished in a Day
By Halifax

Tuning: E a d g b E 

INTRO

e|------------------------------------------------------------------------|
B|------3-------3-------3-------3-----------------------------------------|
G|----0---0---0---0---0---0---0---0---------------------------------------|
D|--5-------5-------5-------4---------------------------------------------|
A|------------------------------------------------------------------------|
E|------------------------------------------------------------------------|

Verse 1
Em               d                 C
Cornered with my back against the wall
               Em
The lights are dimming by the minute
             d             C
Can someone call my other self

Let them know ill be just fine

(2x)

Chorus
g              C                   
Start back at start so I know where to go
Em                    d
Weve made it this far no turning back now
g               C    
Six days and all I can think about 
Em              d
Six days and all I can think about is you

(2x)

Verse 2
Em                             d
Can it be were on top of the world

From now on I can see
C
From a distance I can see the end
Em                             d
Can it be were on top of the world

The stranger feeling crawling up my arm 
C
Into my heart 

Chorus

Bridge
Em
Yea its over now 
E  d          E    C
     From my head down to my legs
E  d         E    C
     From my head down to my 

e|----------x-x-x-x----------------------------------------|------------|
B|----------x-x-x-x----------------------------------------|------------|
G|----------x-x-x-x------9--7-7-7-/-9--5-5-5-/-7-/-9-----|--x4--------|
D|-2-2-2-2--x-x-x-x----------------------------------------|------------|
A|-2-2-2-2--x-x-x-x--7--5-5-5-/-7--3-3-3-/-5-/-7---------|------------|
E|-0-0-0-0--x-x-x-x----------------------------------------|------------|

Verse 1 (repeat until finished)

In the bridge slide from one chord to the next

ĂŽnscrie-te la newsletter


Join the ranks ! LIKE us on Facebook