Our Revolution Solo Tab - Halifax




                                           pm].....................
e[--10b13------------------------------------------------------------------|
b[-------------------------------------------------------------------------|
g[--------------------------3-------3---------3-5-3---3-------------5~-----|
d[----------------------------5-3-5---5-3-5---------5---5-4-3--------------|
a[------------------------------------------------------------5-4-3--------|
E[--------x/x/x/x/x/x/x/x--------------------------------------------------|
             pick slide

e[-------------------------------------------------------------------------|
b[-------------------------------------------------------------------------|
g[-14b15-12--10------14b15-12--10----14b16hold bend and keep picking-------|
d[---------------12---------------12---------------------------------------|
a[-------------------------------------------------------------------------|
E[-------------------------------------------------------------------------|


e[---------------------------------------------------------------------------|
b[-----------------------------15-13-11h13p11--------------------------------|
g[--14p12p10---14p12p10----14----------------12------------------------------|
d[-----------12----------12--------------------------------------------------|
a[---------------------------------------------------------------------------|
E[----------------------------------------------x/x/x/x/x/x/x/x/x/x/x--------|

e[---------------------------------------------13b15------------------------|
b[--t14p8h11---8 times----t16p10h13---5 times-------------------------------|
g[--------------------------------------------------------------------------|
d[--------------------------------------------------------------------------|
a[--------------------------------------------------------------------------|
E[--------------------------------------------------------------------------|

ĂŽnscrie-te la newsletter


Join the ranks ! LIKE us on Facebook