Motorvatin Tab - Hanoi Rocks






Hanoi Rocks - Motorvatin


Intro:

Bass
|-----------------------------------|
|-----------------------------------|
|--------2-4-5-5-5-4-2-----5-4-2----| 
|--3-3-3---------------3-3-------3-3|

Guitar
|-----------------------------------|
|-----------------------------------|
|-----------------------------------|
|-----------------------------------|
|--------2-4-5-5-5-4-2-----5-4-2----|
|--3-3-3---------------3-3-------3-3|






Like us on Facebook