No Law Or Order Intro Tab - Hanoi Rocks






Hanoi Rocks - No Law Or Order
Oriental Beat (1982)

This is very cool song from Hanoi Rocks and one of my favourite Hanoi songs. This 
is easy riff and sounds good. That's my second tab.

Intro:
|-----------------------|
|--7---5-----5----------|
|---------7-------------|
|---------------7-------|
|-----------------------|
|-----------------------|

|-----------------------|
|-----------------------|
|--7---6--4--6----------|
|---------------4-------|
|-----------------------|
|-----------------------|

|-----------------------|
|-----------------------|
|--4--------------------|
|------7--5--7----------|
|---------------5-------|
|-----------------------|

|-----------------------|
|-----------------------|
|-----------------7-----|
|-----4--5--4--7--------|
|--7--------------------|
|-----------------------|






Like us on Facebook