24 Hour Party People Bass Tab - Happy Mondays




Hsppy Mondays
24 Hour Party People
Squirel and G Man 24 Hour Pary People Plascic Face Can't Smile (white out)

-------------------------------7------|
--7-7-5 7 5----------7-7-5-7-8--------|
------------5-6-7-8-------------5-6-7-|
--------------------------------------|

-------------------------------7------|
--7-7-5 7 5----------7-7-5-7-8--------|
------------5-6-7-8-------------5-6-7-|
--------------------------------------|

ĂŽnscrie-te la newsletter


Join the ranks ! LIKE us on Facebook