Hollow Ground Bass Tab - Hatebreed






----------------------------------------------------------------------------
     HOLLOW GROUND - Hatebreed
----------------------------------------------------------------------------

Tabbed By : Bas55
e-mail: cbassbeer@gmail.com

Tuning: C G C F (Drop C)


Figure 1 (Half time feel)

F|----------------|----------------|----------------|----------------|
C|----------------|----------------|----------------|----------------|
G|----------------|----------------|----------------|----------------|
C|004---0003-10---|004---0003-10---|004---0003-01---|10010010033-430-|


Figure 2

F|----------------|----------------|----------------|----------------|
C|----------------|----------------|----------------|----------------|
G|----------------|----------------|----------------|----------------|
C|5---------------|------------1-0-|1---------------|------------4-0-|


Figure 3

F|----------------|----------------|----------------|----------------|
C|----------------|----------------|----------------|----------------|
G|----------------|----------------|----------------|----------------|
C|5-000-0---0-1-0-|1-000-0---0-1-0-|1-000-0---0-1-0-|1-000-0---0-4-0-|


Figure 4

F|----------------|----------------|
C|----------------|----------------|
G|00000---------3-|----------------|
C|----------------|------5---6-3---|


Structure

00:18  Figure 1 x3
01:03  Figure 2 x1
01:08  Figure 3 x4
01:30  Figure 4 x4
01:42  Figure 3 x4
02:04  Figure 4 x4
02:15  Figure 1 x2


| /  slide up
|   slide down
| h  hammer-on
| p  pull-off
| ~  vibrato
| +  harmonic
| x  Mute note
============================================================================

ĂŽnscrie-te la newsletter


Like us on Facebook