Bring Em Out Tab - Hawk Nelson






----------------------------------------------------------------------------                           
Bring 'Em Out- Hawk Nelson
----------------------------------------------------------------------------

Tabbed By: Chris
E-mail:person5773@yahoo.com
Tuning: Standard

Really great song. Ive read a couple of chords for this song and they sound bad
so I redid it. Enjoy

After Drums (Intro):
E|-------------------------------|-----------------------------------------|
B|-------------------------------|-----------------------------------------|
G|-------------------------------|-----------------------------------------|
D|-----4-------------------------|-----4-----------------------------------|
A|-----2-------------------------|-----2-----------------------------------|
E|-------------------------------|-----------------------------------------|
       Pump up your fists...           lights go out...

E|-----------------3-------------------------------------------------------|
B|-----------------0-------------------------------------------------------|
G|--------4--------0-------------------------------------------------------|
D|--------2--------0-------4---6-------------------------------------------|
A|----44-----44----2---44--2---4-------------------------------------------|
E|----22-----22----3---22--------------------------------------------------|






Like us on Facebook