Head On Collision Intro Tab - Hawk Nelson






-------------------------------------------------------------------------------
     Head On Collision - Hawk Nelson
-------------------------------------------------------------------------------
Tabbed by: Luke ( 11 )
Email:

Tuning:standard

e|------------------------------------------------------------------------------|
B|------------------------------------------------------------------------------|
G|------4---------------4---------------4---------------------------------------|
D|---4----4---x2-----4----4--x2------4----4--x2---------------------------------|
A|-2----------------------------------------------------------------------------|
E|----------------2---------------0---------------------------------------------|

Here it is. I am 11 and this only my 2nd tab, but i think it's pretty good. I finger pic 
and suggest that u do. It makes it easier. God Bless. ****






Like us on Facebook