Hello Intro (ver2) Tab - Hawk Nelson






-------------------------------------------------------------------------------
     Hello-Hawk Nelson
-------------------------------------------------------------------------------
Tabbed by: Luke ( 11 )


Tuning:standard

e|------------------------------------------------------------------------------|
B|------------------------------------------------------------5-----------------|
G|--5-----------------------5-------------------------5-5-5-7---7--5------------|
D|--5----x5----3------------3-----x5-------5--------------------------5---------|
A|--3----------3-----x5-----3--------------3------x2---------------------8------|
E|-------------1---------------------------3------------------------------------|

e|---------------------------------------------------------------------------|
B|------------5-------5------------------------------------------------------|
G|----5-5-5-7---7--5----7----------------------------------------------------|
D|---------------------------------------------------------------------------|
A|---------------------------------------------------------------------------|
E|---------------------------------------------------------------------------|

I might tab the rest later. this is my first ever tab and i'm only 11 so i'm not 
this is perfect. L8ter. o and hi john.

ĂŽnscrie-te la newsletter


Like us on Facebook