Hello Intro Tab - Hawk Nelson






-------------------------------------------------------------------------------
     Hello - Hawk Nelson
-------------------------------------------------------------------------------
Tabbed by:David Topper
Email: jctopper@yahoo.com
This is my first tab.Been playing for 2 years. Comments/corrections are welcome.
But I've worked it out, it sounds just right. Listen to the cd for rythyms; Cool
song. Tuning:Standard

e|-----------------------------------------------------------------------------|
B|-----------------------------------------------------------------------------|
G|------------------9-7-5-5------------------------------9-7-5-5-9-7-----------|
D|-10-10-10-10-10---------------3-3----10-10-10-10-10--------------------------|
A|-----------------------------------------------------------------------------|
E|-----------------------------------------------------------------------------|

e|---------------------------------------------------------------------------|
B|---------------------------------------------------------------------------|
G|------------------9-7-5-5--------77------5-5-7-7-9-7-----------------------|
D|-10-10-10-10-10-------------3-3-----0-0------------------------------------|
A|---------------------------------------------------------------------------|
E|---------------------------------------------------------------------------|


| /  slide up
|   slide down
| h  hammer-on
| p  pull-off
| ~  vibrato
| +  harmonic
| x  Mute note
===============================================================================






Like us on Facebook