One Thing I Have Left Bass Tab - Hawk Nelson






|---------------------------------------------------------------|
|----2222----1111-------22--------------11112222-------22-------|
|4444----2222----44-4422--22-24-44442222--------44-4422--22-24--|
|---------------------------4------------------------------4----|REPEAT


|---------------------------------------|
|-------------------------------22------|
|00002222444422220000222244-4422--------|
|---------------------------------------|


|------------------------------------------------------------|
|----------------------------------------------------222-----|
|00000000------------------------2420---------444-222---2-2--|
|--------22222222-44444444-222222----422222244---------------|


|------------------------------------------------------------|
|----------------------------------------------------22------|
|00000000------------------------2420---------44-4422--22-24-|
|--------22222222-44444444-222222----422222244-----------4---|


|-----------------|           |----------------------------------|
|-------22--------|           |-----2222----1111--------22-------|
|44-4422--22-24---|           |-4444----2222-----44-4422--22-24--|
|-----------4-----|REPEAT     |-----------------------------4----|


|---------------------------------|
|---------11112222-------22-------|
|-44442222--------44-4422--22-24--|
|----------------------------4----|


|---------------------------------------|
|-------------------------------22------|
|00002222444422220000222244-4422--------|
|---------------------------------------|


|------------------------------------------------------------|
|----------------------------------------------------222-----|
|00000000------------------------2420---------444-222---2-2--|
|--------22222222-44444444-222222----422222244---------------|


|----------------------------------------------|
|----------------------------------------------|
|00000000------------------------2420----------|
|--------22222222-44444444-222222----422222244-|


|---|   |-----------|           |-------|   |----------|
|---|   |-----------|           |---2421|   |----------|
|-00|   |44444440---|           |-44----|   |44444440--|
|---|   |--------4--|PLAY 3X    |-------|   |--------4-|PLAY 3X


|-------|   |-------|          |-------|   |--------------|
|---2421|   |-------|          |---2421|   |--------------|
|-44----|   |-44-44-|          |-44----|   |-44-444-444---|
|-------|   |-------|PLAY 3X   |-------|   |--------------|PLAY 3X


|--------------------------------|
|--2421--2421---------------2421-|
|44----44----2----2-2-2-2-44----4|
|--------------------------------|

ĂŽnscrie-te la newsletter


Join the ranks ! LIKE us on Facebook