Things We Go Through Intro Tab - Hawk Nelson






-------------------------------------------------------------------------
          THINGS WE GO THROUGH - Hawk Nelson
--------------------------------------------------------------------------
Tabbed by: Ross Ribblett
Email: Hambone1216@yahoo.com

* is palm mute 

e|----------------------------------------------------------|
B|----------------------------------------------------------|
G|-----------------7-7-9-9------------------7-7-9-4-2-------|
D|-----------------7-7-9-9------------------7-7-9-4-2-------|
A|----7-7-5-5-4-4--5-5-7-7-----7-7-5-5-4-4--5-5-7-6-4-------|
E|-5-5-------------*---*----5-5-------------*---------------|
 

i couldnt find any good tabs for the intro.. so here it is this is an 
awesome song. Just look at other tabs for the rest of the song.






Like us on Facebook