Box Tab - Hed Pe






Hed pe
The Box
Only in Amerika
Standard Tuning

Intro / Verse
---------------------------------------------------|
---------------------------------------------------|
---------------------------------------------------|
------2-1-------2-1--------------------------------|
--2-3-----3-2-1------------------------------------|
---------------------------------------------------|

Chorus
------------------8-------------------------------|
--------------------------------------------------|
--4---4-4---x-x---5-------------------------------|
--4---4-4---x-x-----------------------------------|
--2---2-2---x-x-----------------------------------|
--------------------------------------------------|

Corrections Welcome






Like us on Facebook