Chosen One Tab - Hed Pe






                         Chosen One
                        by (hed)p.e.

album: Back 2 Base X
tabed by Chizz

this is a live version played acustic on Bubba Raw Love Sponge
 Verse                Pre-chorus
E|-------------------|-------------------------------------------|
B|-------------------|-------------------------------------------|
D|-------------------|-9-13-16---6/76/7----9-9/139-7--6/76/7-|
A|---------7-9-7-----|-------------------------------------------|
E|-7---7-9-------7-5-|-7-11-14---4/54/5----7-7/117-5--4/54/5-|
 p.m.----------------

 Chorus
E|--4----x-5----x------(7)--------------------------------|
B|--4----x-5----x------ 7----------7---------7---------7--|
G|--5----x-6----x-------8----------8---------8---------8--|
D|--6------7----x-------9----------9---------9---------9--|
A|--6------7-------9-9-(9)---x-9-9-------9-9-----x-9-9----|
E|--4------5-------7-7-(7)---x-7-7-----x-7-7-----x-7-7----|
                p.m--------------------------------------

p.m. - palm mute
( )  - ghost note (picked but dont actualy played)






Like us on Facebook