Listen Bass Tab - Hed Pe






Verse (Different paterns):
G|-----------------|
D|-----------------|
A|-----------2*----| *: Let ring
E|-25*--2-6-------|

G|-----------------|
D|-----------------|
A|-----2*-2-22-----|
E|-2-6-------------|

G|-7-77-7-7-7------| (slap it)
D|-----------------|
A|-----------------|
E|-----------------|

Chorus:

G|-----------------|
D|-----------------|
A|-6-6--2---------|
E|-----------------|  By Mini.B






Like us on Facebook