Listen Tab - Hed Pe




                                  Listen
                                by (hed)p.e.


album: Back 2 Base X

tabed by Chizz
originaly played on acustic and electrick (7-string Ibanez) guitar. This is tabed by live version

Verse
w/clean,neck pick up
B----------|----------------------|---------------------|
E-----5--6-|-----5--6-----/1310~-|----5--6-----8-8--6~-|Mid finger
G-----5--7-|-----5--7-------------|----5--7-------------|
D--7--5--7-|--7--5--7-----/107~--|-7--5--7-----5-5--3~-|Thumb
A--7--3--5-|--7--3--5-------------|-7--3--5-------------|
E--5-------|--5-------------------|-5-------------------|
B----------|----------------------|---------------------|
                         fingers                fingers
Chorus
B---x-3--x-3--3-x---3-x--x-x----------|
E---3-x--3-x--3-3---3-3--3-3--4-4-4-4-|
G---4-4--4-4--4-4---4-4--4-4--5-5-5-5-|
D---5-5--5-5--5-5---5-5--5-5--6-6-6-6-|
A---5-5--5-5--5-5---5-5--5-5--6-6-6-6-|
E---3-3--3-3--3-3---3-3--3-3--4-4-4-4-|
B-------------------------------------|
ĂŽnscrie-te la newsletter


Join the ranks ! LIKE us on Facebook