Raise Hell Tab - Hed Pe






Tabbed By:
Jose

Artist:Hed {P.E.}
Song:Raise Hell
Album:Only In Amerika



Tunning: "Drop C"

-={Key]
       ---------------------
D|---  | h = Hammer On
A|---  | p = Pull off
F|---  | . = Palm Mute
C|---  | * = Pinch Hrmonic
G|---  | / = Slide Up To:
C|---  |  = Slide Down To:
       ----------------------




I'm not to sure about the Intro.
i think its sounds a little off.

-={Intro:

-={X1]
D|-----------------|
A|-----------------|
F|-----------------|
C|-----------------|
G|---6---6-7-7---6-|
C|-6---6-------6---|

-={X8]
D|---------------|
A|---------------|
F|---------------|
C|---------------|
G|---6---7-7---6-|
C|-6---6-----6---|

-={Chorus:

-={X3]
D|----------------------------------|
A|----------------------------------|
F|----------------------------------|
C|----------------------------------|
G|-----6-6-7-7-6-6------6-6-7-7-6-6-|
C|-6-6--------------6-6-------------|


D|----------------------------------|
A|----------------------------------|
F|----------------------------------|
C|----------------------------------|
G|-----2-2-4-4-2-2------1-1-2-2-1-1-|
C|-2-2--------------1-1-------------|

-={X1]
D|----------------------------------|
A|----------------------------------|
F|----------------------------------|
C|----------------------------------|
G|-----6-6-7-7-6-6------6-6-7-7-6-6-|
C|-6-6--------------6-6-------------|


D|-------------------------------------|
A|-------------------------------------|
F|-------------------------------------|
C|-------------------------------------|
G|-----2-2-4-4-2-2---------1-1-2-2-1-1-|
C|-2-2-------------------1-------------|

-={Hook:

-={X2]
D|-------------------|
A|-------------------|
F|-------------------|
C|-6-6-6-6-6-6-6-6






Like us on Facebook