Waiting To Die (ver2) Tab - Hed Pe






Tabbed by Bigpuss

Drop B

INTRO

C#|------------------------|
G#|------------------------|
E |-------5--5-----4----10-| x4
B |--3--3------6-----8-----|
F#|------------------------|
B |------------------------|

I DON'T GIVE A F***!!!!

VERSES

I'm a hitman, I'm a stalker...

C#|-----------------------|
G#|-----------------------|
E |-----------------------|
B |-----------------------|
F#|-------3--3----------8-|
B |--3--3------6---9-8----|

PRE-CHORUS

EVERYBODY DIES!!

C#|-----------------------|
G#|-----------------------|
E |-----------------------|
B |--6--9--5----6--9--5---|  x 4
F#|--6--9--5----6--9--5---|
B |--6--9--5----6--9--5---|

CHORUS

There is nothing wrong with me....

C#|---------------------------|
G#|---------------------------|
E |------4---5-------4--------|  x 3
B |--3---4---5---6---4---4--3-|
F#|--3---2---3---6---2---4--3-|
B |--3-----------6-------4--3-|

I'm just waiting....waiting to die!

C#|------------------------|
G#|------------------------|
E |------4---5-------4-----|
B |--3---4---5---6---4---4-|
F#|--3---2---3---6---2---4-|
B |--3-----------6-------4-|

VERSE

PRE-CHORUS

CHORUS

BRIDGE 1

Guitar 1

C#|-------20---21--------19----------|
G#|--18-------------21--------19--18-|
E |----------------------------------|
B |----------------------------------|
F#|----------------------------------|
B |----------------------------------|

Guitar 2
(Not sure about this bit)

C#|-------------|
G#|-------------|
E |-------------|
B |-----------3-|
F#|----------3--|
B |---3-3-33----|

C#|----------|
G#|----------|
E |----------|
B |--------3-|   x 2
F#|-------3--|
B |--3-33----|

C#|-----------|
G#|-----0-----|
E |-----4-----|
B |-----4-----|
F#|-----2-----|
B |--3--------|

BRIDGE 2

Everybody dies.......

C#|----------------------------|
G#|----------------------------|
E |----------------------------| x 4
B |----------------------------|
F#|----------------------------|
B |--33-99-1010-66-99-55-88-44-|


EVERYBODY DIES!!!!

C#|----------------------------|
G#|----------------------------|
E |----------------------------| x 4
B |--33-99-1010-66-99-55-88-44-|
F#|--33-99-1010-66-99-55-88-44-|
B |--33-99-1010-66-99-55-88-44-|

Figure the rest out, just repeats chorus, etc.
Reckon it's on the money aside from guitar 2/riff at end of song.






Like us on Facebook