Walk On By Tab - Hed Pe






Tuning Is Drop C

Intro Pt. 1
|-----------------|
|-----------------|
|-----------------|
|-----------------|
|-0000-0-0-00-1---|
|-0000-0-0-00-1---|
  .. . . . ..

Intro Pt. 2
|-----------------|
|-----------------|
|-----------------|
|-----------------|
|-0-0-00-0-0-00-0-|
|-0-0-00-0-0-00-0-|
  . . .. . . .. .

Intro Pt. 3
|-------------------------|
|-------------------------|
|-------------------------|
|-6-5-6-5-6-5-6-5-6-5-2h3-|
|-------------------------|
|-------------------------|
  . . . . . . . . . .

Intro Pt. 4/Chorus
|--------------------------|
|--------------------------|
|--------------------------|
|-0--6-5-0--6-5-0--0-0--3--|
|-0--6-5-0--6-5-0--0-0--3--|
|-0--6-5-0--6-5-0--0-0--3--|

Verse
|-------------------------------------|
|-------------------------------------|
|-------------------------------------|
|-0--0-0-0--0-0--0-0--12--10----6--8--|
|-0--0-0-0--0-0--0-0--12--10----6--8--|
|-0--0-0-0--0-0--0-0--12--10----6--8--|

The Rest of the Song Coming Soon!






Like us on Facebook