La Herida (ver2) Tab - Heroes del Silencio






-=Intro=-
    Am                       G                         Dm                       Am   
e|--0-0---0h1p0--------------1-1---2h3p2---------------1-1-------5---4---3---2--0--|]
B|--1--1-------3p1p0---------0--0--------3-2-0---------2---2---6---5---4---3----1--|]
G|--2---2-----------2-0------0----0------------3-2-0---3-----3------------------2--|]
D|--2-------------------2-0--0-----------------------3--------------------------2--|]
A|--0------------------------2--------------------------------------------------0--|]
E|---------------------------3-----------------------------------------------------|]

-=Coro=-
    C    Em     F             Am
     Siempre es la misma funcin, el mismo espectador,
    CEmF                G 
     el mismo teatro, en el que tantas veces actu.
    Am   C         G          Dm      Am
     Perder la razn en un juego tan real
    C     Em      G       Am
     quizs fuera un error, crame esta herida, por favor.

e|--5----8----7----5------3-1p0--|]
B|----5----5----5----5/1---------|]
G|-------------------------------|]
D|-------------------------------|]
A|-------------------------------|]
E|-------------------------------|]

-=Verso 1=-
  AmG
     Que hay en dos amigos cuando despus de todo
F    Am
     parecen perdidos y prefieren a otros?
  AmG
     Que dan lerdas manos, ignorando lo dado,
   FAm
     si antao se estrecharon, ahora estn engaados?
      Am  G
     Que les hizo alejarse de su orilla intranquila,
    F     Am
     tan siquiera un instante piensan en esos das?

-=Coro=-
    C    Em     F             Am
     Siempre es la misma funcin, el mismo espectador,
    CEmF                G 
     el mismo teatro, en el que tantas veces actu.
    Am   C         G          Dm      Am
     Perder la razn en un juego tan real
    C     Em      G       Am
     quizs fuera un error, crame esta herida, por favor.

    Am                       G                         Dm                       Am   
e|--0-0---0h1p0--------------1-1---2h3p2---------------1-1-------5---4---3---2--0--|]
B|--1--1-------3p1p0---------0--0--------3-2-0---------2---2---6---5---4---3----1--|]
G|--2---2-----------2-0------0----0------------3-2-0---3-----3------------------2--|]
D|--2-------------------2-0--0-----------------------3--------------------------2--|]
A|--0------------------------2--------------------------------------------------0--|]
E|---------------------------3-----------------------------------------------------|]

-=Verso 2=-
     Am                       G
     siempre he preferido un beso prolongado,
            F                       Am  
     aunque sepa que miente, aunque sepa que es falso.
     Am                       G                          F 
     que demonios ocurre cuando miradas no se encuentran?
                            Am
     la pelea de gallos, se admiten apuestas.
     Am                        G
     quien busco abrigo en algn otro lugar?
            F                 Am
     es posible que el fro venga con la edad?

-=Coro=-
    C    Em     F             Am
     Siempre es la misma funcin, el mismo espectador,
    CEmF                G 
     el mismo teatro, en el que tantas veces actu.
    Am   C         G          Dm      Am
     Perder la razn en un juego tan real
    C     Em      G       Am
     quizs fuera un error, crame esta herida, por favor.


Any Comment please email me, ragarideath@hotmail.com
Tabb by: Ramn Guillermo Galz Rios  Tijuana, BC, Mxico.

ĂŽnscrie-te la newsletter


Join the ranks ! LIKE us on Facebook