Bed Of Roses Intro Tab - Hinder






-------------------------------------------------------------------------------
     Bed of Roses - Hinder
-------------------------------------------------------------------------------
Tabbed by:Phillip
Email:Cheetaclawsfl@yahoo.com

Tuning:Standard

e|-1-1-1-1------1-1-1-1------1-1-1--1---1-1-1-1------------------------------|
B|-3-3-3---3----3-3-3---3----1-1-1---1--1-1-1--1-----------------------------|
G|-3-3-3-----3--3-3-3-----3--2-2-2----2-2-2-2---2----------------------------|
D|-3-3-3--------3-3-3--------3-3-3------3-3-3--------------------------------|
A|-1-1-1--------1-1-1--------3-3-3------3-3-3--------------------------------|
E|-1-1-1--------1-1-1--------1-1-1------1-1-1--------------------------------|

That is the intro.  There comes a point when he strums the chords and not picking the 
on the e B and G strings. Have Fun! :)

| /  slide up
|   slide down
| h  hammer-on
| p  pull-off
| ~  vibrato
| +  harmonic
| x  Mute note
===============================================================================

ĂŽnscrie-te la newsletter


Like us on Facebook